Oops, an error
Loading. Please wait.

Whatd I Say Pt 1 bass

version 2
version 2

Whole song

  • This is the upright bass that is in the song, not ... Show more
28 views 6 this week
no commentswrite comment
1 2 3 4 5
2 more votes to show rating
add to favorites
×
Save as Personal and add changes to this tab that will be seen only by you. Learn more ›
×
You can save this tab as Personal to edit and correct it or add notes. All changes will be seen only by you. Learn more »
launch autoscroll
font size
0
reset
guitar tuner
edit
Autoscroll
slow
fast
+/-
esc
set tempo
stop
** I am referencing this recording, https://www.youtube.com/watch?v=5SWldaj4lHM , to wrote this tab.
I'm about 100% sure there is no bass guitar in this song, its all done with keys, but, per the UG 
community request, here is a Bass tab  :D

Time Signature: 4/4

[Piano Intro]

[Intro]
  1  2  3  4 + 
g|-------------|-------------|--------------|-------------|
d|------0--2---|------0--2---|------0---2---|------0---2--|
a|---2---------|---2---------|---2----------|---2---------|
E|0----------0-|-------------|0-----------0-|-------------|

  1  2  3  4 + 
g|------0--2---|------0--2---|--------------|-------------|
d|---2---------|---2---------|------0---2---|------0---2--|
a|0----------0-|-------------|---2----------|---2---------|
E|-------------|-------------|0-----------0-|-------------|

  1  2  3  4 +                1  2  3   4  +  1 + 2 + 3 +               
g|------2--4---|------0--2---|---------------|-------------|
d|---4---------|---2---------|---------------|-------------|
a|2----------0-|-------------|---2--0------0-|--0-0-0---0--|
E|-------------|-------------|0---------3----|-------------|

[Verse 1]
(4 measure rest)

[Interlude 1]
   1  2  3  4 + 
g|------0--2---|------0--2---|--------------|-------------|
d|---2---------|---2---------|------0---2---|------0---2--|
a|0----------0-|-------------|---2----------|---2---------|
E|-------------|-------------|0-----------0-|-------------|

  1  2  3  4 +                1  2  3   4  +  1 + 2 + 3 +               
g|------2--4---|------0--2---|---------------|-------------|
d|---4---------|---2---------|---------------|-------------|
a|2----------0-|-------------|---2--0------0-|--0-0-0---0--|
E|-------------|-------------|0---------3----|-------------|

[Verse 2]
(4 measure rest)

[Interlude 2]
   1  2  3  4 + 
g|------0--2---|------0--2---|--------------|-------------|
d|---2---------|---2---------|------0---2---|------0---2--|
a|0----------0-|-------------|---2----------|---2---------|
E|-------------|-------------|0-----------0-|-------------|

  1  2  3  4 +                1  2  3   4  +  1 + 2 + 3 +               
g|------2--4---|------0--2---|---------------|-------------|
d|---4---------|---2---------|---------------|-------------|
a|2----------0-|-------------|---2--0------0-|--0-0-0---0--|
E|-------------|-------------|0---------3----|-------------|

[Verse 3]
                    4 +  1
g|-----------|----------|------|---------|
d|-----------|--------0-|2-----|---------|
a|-----------|------2---|------|---------|
E|-----------|----------|------|---------|

[Interlude 3]
   1  2  3  4 + 
g|------0--2---|------0--2---|--------------|-------------|
d|---2---------|---2---------|------0---2---|------0---2--|
a|0----------0-|-------------|---2----------|---2---------|
E|-------------|-------------|0-----------0-|-------------|

  1  2  3  4 +                1  2  3   4  +  1 + 2 + 3 +               
g|------2--4---|------0--2---|---------------|-------------|
d|---4---------|---2---------|---------------|-------------|
a|2----------0-|-------------|---2--0------0-|--0-0-0---0--|
E|-------------|-------------|0---------3----|-------------|

[Verse 4]
g|-------|------|------|-------|
d|-------|------|------|-------|
a|-------|------|------|-------|
E|0------|0-----|0-----|-------|

[Interlude 4]
   1  2  3  4 + 
g|------0--2---|------0--2---|--------------|-------------|
d|---2---------|---2---------|------0---2---|------0---2--|
a|0----------0-|-------------|---2----------|---2---------|
E|-------------|-------------|0-----------0-|-------------|

  1  2  3  4 +                1  2  3   4  +  1 + 2 + 3 +               
g|------2--4---|------0--2---|---------------|-------------|
d|---4---------|---2---------|---------------|-------------|
a|2----------0-|-------------|---2--0------0-|--0-0-0---0--|
E|-------------|-------------|0---------3----|-------------|

[Verse 5 - instrumental]
  1 + 2 + 3 + 4 +                                            1     2  +  3  +  4  +
g|----------------|------------------------|----------------|------------------------|
d|----------------|------------------------|9-9-9-9-9-9-9-9-|9/12--14----------------|
a|7-7-7-7-7-7-7-7-|10-10-10-10-10-10-10-10-|----------------|---------14----12-------|
E|----------------|------------------------|----------------|------------------15-12-|

[Interlude 5]
   1  2  3  4 + 
g|------0--2---|------0--2---|--------------|-------------|
d|---2---------|---2---------|------0---2---|------0---2--|
a|0----------0-|-------------|---2----------|---2---------|
E|-------------|-------------|0-----------0-|-------------|

  1  2  3  4 +                1  2  3   4  +  1 + 2 + 3 +               
g|------2--4---|------0--2---|---------------|-------------|
d|---4---------|---2---------|---------------|-------------|
a|2----------0-|-------------|---2--0------0-|--0-0-0---0--|
E|-------------|-------------|0---------3----|-------------|

[Verse 6]
                    4 +  1
g|-----------|----------|------|---------|
d|-----------|--------0-|2-----|---------|
a|-----------|------2---|------|---------|
E|-----------|----------|------|---------|

[Interlude 6]
   1  2  3  4 + 
g|------0--2---|------0--2---|--------------|-------------|
d|---2---------|---2---------|------0---2---|------0---2--|
a|0----------0-|-------------|---2----------|---2---------|
E|-------------|-------------|0-----------0-|-------------|

  1  2  3  4 +                1  2  3   4  +  1 + 2 + 3 +               
g|------2--4---|------0--2---|---------------|-------------|
d|---4---------|---2---------|---------------|-------------|
a|2----------0-|-------------|---2--0------0-|--0-0-0---0--|
E|-------------|-------------|0---------3----|-------------|

[Verse 7]
                    4 +  1
g|-----------|----------|------|---------|
d|-----------|--------0-|2-----|---------|
a|-----------|------2---|------|---------|
E|-----------|----------|------|---------|

[Interlude 7]
   1  2  3  4 + 
g|------0--2---|------0--2---|--------------|-------------|
d|---2---------|---2---------|------0---2---|------0---2--|
a|0----------0-|-------------|---2----------|---2---------|
E|-------------|-------------|0-----------0-|-------------|

  1  2  3  4 +                1  2  3   4  +  1 + 2 + 3 +               
g|------2--4---|------0--2---|---------------|-------------|
d|---4---------|---2---------|---------------|-------------|
a|2----------0-|-------------|---2--0------0-|--0-0-0---0--|
E|-------------|-------------|0---------3----|-------------|

[Outro]
  1  2  3  4 + 
g|-------------|-------------|--------------|-------------|
d|------0--2---|------0--2---|------0---2---|------0---2--|
a|---2---------|---2---------|---2----------|---2---------|
E|0----------0-|-------------|0-----------0-|-------------|

  1  2  3  4 + 
g|------0--2---|------0--2---|--------------|-------------|
d|---2---------|---2---------|------0---2---|------0---2--|
a|0----------0-|-------------|---2----------|---2---------|
E|-------------|-------------|0-----------0-|-------------|

  1  2  3  4 +                1  2  3   4  +  1 + 2 + 3 +               
g|------2--4---|------0--2---|---------------|-------------|
d|---4---------|---2---------|---------------|-------------|
a|2----------0-|-------------|---2--0------0-|--0-0-0---0--|
E|-------------|-------------|0---------3----|-------------|

  1  2  3  4 + 
g|-------------|-------------|--------------|-------------|
d|------0--2---|------0--2---|------0---2---|------0---2--|
a|---2---------|---2---------|---2----------|---2---------|
E|0----------0-|-------------|0-----------0-|-------------|

  1  2  3  4 + 
g|------0--2---|------0--2---|--------------|-------------|
d|---2---------|---2---------|------0---2---|------0---2--|
a|0----------0-|-------------|---2----------|---2---------|
E|-------------|-------------|0-----------0-|-------------|

  1  2  3  4 +                1  2  3   4  +  1 + 2 + 3 +               
g|------2--4---|------0--2---|---------------|-------------|
d|---4---------|---2---------|---------------|-------------|
a|2----------0-|-------------|---2--0------0-|--0-0-0---0--|
E|-------------|-------------|0---------3----|-------------|

            
            
Suggest correction
Creating personal tab
Creating personal tab
You can edit any tab online and save it as your Personal.

You can edit, replace or remove any tab part or add personal notes – all changes will be seen only by you.

Personal tabs can be accessed anytime from any device, even offline.
Learn more »
Give kudos to tab author, rate the tab!
1 2 3 4 5
comments
print report bad tab
guest
You may want to rate the tab now too:
select rating
Wanna post a correction for this tab? Suggest correction