Oops, an error
Loading. Please wait.

Are We Really Through Tab

version 2
version 2

Whole song

5,120 views 9 this week
no commentswrite comment
1 2 3 4 5
please rate
add to favorites
launch autoscroll
font size
0
reset
how to read this tab
guitar tuner
Autoscroll
slow
fast
+/-
esc
set tempo
stop
Help us to improve Ultimate-Guitar.com Take our survey!
×
Contributor
Difficulty
intermediate
Standard Tuning

[Note] I'm not sure if this is exactly how he plays it, I just know it's how I 
play it and is sounds great. Let me know what you think!


[Intro](x2)

|-------------------------------------------------------------------|
|--4---4----5-4-----2--4-----4----5--4-----2--4---4----5--4------2--|
|--4-----4--4-4---3----3-------3--3--3---3----2-----2--2--2----2----|
|-----------4-4-------------------4--4-----------------3--3---------|
|--2--2-----2-2--2-----2--2-------2--2--2-----2--2-----2--2--2------|
|-------------------------------------------------------------------|

|------------|
|-0-0-0-----0|
|-1-1-1---1--|
|-0-0-0------|
|-2-2-2-2----|
|------------|


[Verse 1]
                          
                          Is that sun, ever gonna break,    break on through         
|--------|-----------------------------------------|-------------------|
|--4-----|4---4---4--4---4---4--4---4--4---4---4---|--4----4---4---4---|
|--4-----|--4---4---4--4---4---4--4---4--4---4---4-|--3------3---3---3-|
|--------|-----------------------------------------|-------------------|
|--2--2--|-----------------------------------------|--2--2-------------|
|--------|-----------------------------------------|-------------------|

the clouds, shine down in all it's glory
|------------------------------|
|--4---4---4---4----0-0-0----0-|
|--2-----2---2---2--1-1-1---1--|
|-------------------0-0-0------|
|--2--2-------------2-2-2--2---|
|------------------------------|

Onto me, here upon the ground, Cuz I can't hear 
|----------------------|-------------------|
|--4--------4---4---4--|--4----4---4---4---|
|--4----------4---4---4|--3------3---3---3-|
|----------------------|-------------------|
|--2--2----------------|--2--2-------------|
|----------------------|-------------------|

a sound, cept my own sad story
|------------------------------|
|--4---4---4---4----0-0-0----0-|
|--2-----2---2---2--1-1-1---1--|
|-------------------0-0-0------|
|--2--2-------------2-2-2--2---|
|------------------------------|

[Chorus]

F#     E       A           B
Get so tired, starin at the wall

F#        E               A            B
Weight so heavy, and that mountains so tall


F#       E                D        F#   B
Is there no one who would catch me as I fall


(Intro)



[Verse 2]

And it's more, more than I can take I wish that I could  
|----------------------|-------------------|
|--4--------4---4---4--|--4----4---4---4---|
|--4----------4---4---4|--3------3---3---3-|
|----------------------|-------------------|
|--2--2----------------|--2--2-------------|
|----------------------|-------------------|

fake it, pretend like I don't know what's goin on
|------------------------------|
|--4---4---4---4----0-0-0----0-|
|--2-----2---2---2--1-1-1---1--|
|-------------------0-0-0------|
|--2--2-------------2-2-2--2---|
|------------------------------|

Something's wrong, somethings wrong, trying to hold 
|----------------------|-------------------|
|--4--------4---4---4--|--4----4---4---4---|
|--4----------4---4---4|--3------3---3---3-|
|----------------------|-------------------|
|--2--2----------------|--2--2-------------|
|----------------------|-------------------|

 on, for just a little longer
|------------------------------|
|--4---4---4---4----0-0-0----0-|
|--2-----2---2---2--1-1-1---1--|
|-------------------0-0-0------|
|--2--2-------------2-2-2--2---|
|------------------------------|


(Chorus)

(Intro)

[Bridge]

E            B               F#
Can you hear me? Can you see me?
               E
Why is that so hard for you to do?

E               B
Don't dispel me girl, Just tell me,

D        F#       B
Are we really through?



(Intro)



Is that sun, ever gonna break, break on through the  
|----------------------|-------------------|
|--4--------4---4---4--|--4----4---4---4---|
|--4----------4---4---4|--3------3---3---3-|
|----------------------|-------------------|
|--2--2----------------|--2--2-------------|
|----------------------|-------------------|

clouds, shine down in all it's glory, on to
|------------------------------|
|--4---4---4---4----0-0-0----0-|
|--2-----2---2---2--1-1-1---1--|
|-------------------0-0-0------|
|--2--2-------------2-2-2--2---|
|------------------------------|

 me, here upon the     ground, cuz I can't hear a 
|----------------------|-------------------|
|--4--------4---4---4--|--4----4---4---4---|
|--4----------4---4---4|--3------3---3---3-|
|----------------------|-------------------|
|--2--2----------------|--2--2-------------|
|----------------------|-------------------|

 sound, cept my own sad story
|------------------------------|
|--4---4---4---4----0-0-0----0-|
|--2-----2---2---2--1-1-1---1--|
|-------------------0-0-0------|
|--2--2-------------2-2-2--2---|
|------------------------------|


(Bridge)
Suggest correction new What's this?
You can suggest a correction to this tab. Community and Mods will review your correction and vote to approve or reject it.
comments
We did not receive enough feedback on this tab! Please rate:
print report bad tab
1 2 3 4 5
guest
You may want to rate the tab now too:
select rating
Please do not post tabs as comments. Select "correction" instead!