Oops, an error
Loading. Please wait.

Be Here Now Tab

version 1
version 1

Whole song

55,112 views 75 this week
5 commentsread comments
1 2 3 4 5
excellent!
x 10
add to favorites
launch autoscroll
font size
0
reset
how to read this tab
guitar tuner
Autoscroll
slow
fast
+/-
esc
set tempo
stop
Help us to improve Ultimate-Guitar.com Take our survey!
×
Difficulty
intermediate
-------------------------------------------------------------------------------
                             Be Here Now - Ray LaMontagne
-------------------------------------------------------------------------------
Tabbed by: Andy Buckner
Email: andybuckner28@yahoo.com

This is a tab for the version off the album "Till the Sun Turns Black." It's a great 
and this is a great song. Personally, I find it easiest to fingerpick this song, but to 
his own. Enjoy!

Tuning: Standard (EADGBe)


Song Intro   (Also preceeds every verse)
e|---------------------------------------------------------------------------|
B|---------------------------------------------------------------------------|
G|---------------------------------------------------------------------------|
D|------2---2---2---2---2---2---2---2---2---2--------------------------------|
A|---------------------------------------------------------------------------|
E|----0---0---0---0---0---0---0---0---0---0----------------------------------|


The Melody/Verses (Also first and third lines of the Verses)
                                                                  D
e|----------------------------------------------------------------3----------|
B|----------------------------------------------------------------2----------|
G|----------------------------------------------------------------3----------|
D|----2---4---6---7---6---9---6---7---6---2---4---6---4---7---6---0----------|
A|----------------------------------------------------------------x----------|
E|--0---0---0---0---0---0---0---0---0---0---0---0---0---0---0-----x----------|

This is the second and fourth lines of the verse
                                                                  D    C
e|----------------------------------------------------------------3----0-----|
B|----------------------------------------------------------------2----1-----|
G|----------------------------------------------------------------3----0-----|
D|----2---4---6---7---6---9---6---7---6---2---4---6---4---7---6---0----2-----|
A|----------------------------------------------------------------x----3-----|
E|--0---0---0---0---0---0---0---0---0---0---0---0---0---0---0-----x----3-----|


Chorus ("Be....Here Now")
       E        C        D        C
e|-----0--------0--------3--------0------------------------------------------|
B|-----0--------1--------2--------1------------------------------------------|
G|-----1--------0--------3--------0------------------------------------------|
D|-----2--------2--------0--------2------------------------------------------|
A|-----2--------3--------x--------3------------------------------------------|
E|-----0--------3--------x--------3------------------------------------------|

Song Outro (same as Intro)
e|---------------------------------------------------------------------------|
B|---------------------------------------------------------------------------|
G|---------------------------------------------------------------------------|
D|------2---2---2---2---2---2---2---2---2---2--------------------------------|
A|---------------------------------------------------------------------------|
E|----0---0---0---0---0---0---0---0---0---0----------------------------------|


So there it is. Listen to the album for the rhythm and the song layout.
Suggest correction new What's this?
You can suggest a correction to this tab. Community and Mods will review your correction and vote to approve or reject it.
comments
print report bad tab
5 comments total. Showing first comments.
0 reply
heywhynot41 12 wrote on November 27 2006, 05:28 pm

Sounds pretty much perfect

0 reply
whatchucare 51 wrote on April 13 2009, 11:50 pm

D is xx0232, but other than that it looks great.

0 reply
Carazycool 614 wrote on May 18 2011, 07:48 pm

Dmaj7 in the verse:

Dsus2 in the chorus:

5

guest
You may want to rate the tab now too:
select rating
Please do not post tabs as comments. Select "correction" instead!