Oops, an error
Loading. Please wait.

Be Here Now tab

version 2
version 2

Whole song

33,306 views 39 this week
1 commentread comment
1 2 3 4 5
x 14
add to favorites
×
Save as Personal and add changes to this tab that will be seen only by you. Learn more ›
×
You can save this tab as Personal to edit and correct it or add notes. All changes will be seen only by you. Learn more »
launch autoscroll
font size
0
reset
how to read this tab
guitar tuner
edit
Autoscroll
slow
fast
+/-
esc
set tempo
stop
Author
Difficulty
[Chords] 
            E    Dmaj7   C   Dsus2/A
e|----------0------2-----0------0------|
B|----------0------2-----1------3------|
G|----------1------2-----0------x------|
D|----------2------4-----2------4------|
A|----------2------5-----3------5------|
E|----------0------------3------5------|

[Fig.1] played only 1st time after 1st chorus
e|-------------------------------------------------------------------|
B|-------------------------------------------------------------------|
G|---------------------------<1>-----<1>-----------------<1>-----<1>-|
D|----2---2---2---2---2---2---2---2---2---2---2---2---2---2---2---2--|
A|-------------------------------------------------------------------|
E|--0---0---0---0---0---0---0---0---0---0---0---0---0---0---0---0----|

[Fig.2] played both times after choruses
e|-------------------------------------------------------------------|
B|-------------------------------------------------------------------|
G|------------1---2---1---4---1---2---1-----------1-------2---1------|
D|----2---4--<2>-<2>-<2>-<2>-<2>-<2>-<2>--2---4--<2>--4--<2>-<2>--4--|
A|-------------------------------------------------------------------|
E|--0---0---0---0---0---0---0---0---0---0---0---0---0---0---0---0----|

[Fig.1]
[Fig.2]  [Dmaj7 (4 meas.)]
[Fig.2]  [Dmaj7 (2 meas.)]  [C (4 meas.)]
[Fig.1]

[Verse 1]
[Fig.2]Don't let your mind get weary and confused
Your will be still, don't [Dmaj7]try
[Fig.2]Don't let your heart get heavy child
Inside you there's a strength that lies[Dmaj7][C]lies

[Fig.1]

[Verse 2]
[Fig.2]Don't let your soul get lonely child
It's only time, it will go [Dmaj7]by
[Fig.2]Don't look for love in faces, places
It's in you, that's where you'll [Dmaj7]find[C]kindness

[Chorus]
[E]Be, [C]Be here [Dsus2/A]now, Be here [C]now
[E]Be, [C]Be here [Dsus2/A]now, Be here [C]now

[Fig.1]*
[Fig.2]* [Dmaj7 (4 meas.)]
[Fig.2]* [Dmaj7 (2 meas.)]  [C (2 meas.)]
[Fig.1]

[Verse 3]
[Fig.2]Don't lose your faith in me
And I will try not to lose faith in [Dmaj7]you
[Fig.2]Don't put your trust in walls
'Cause walls will only crush you when they [Dmaj7]fall [C]

[Chorus]
[E]Be, [C]Be here [Dsus2/A]now, Be here [C]now
[E]Be, [C]Be here [Dsus2/A]now, Be here [C]now

[Fig.1]
[Fig.2]* [Dmaj7 (4 meas.)]
[Fig.2]* [Dmaj7 (2 meas.)]  [C (4 meas.)]
[Fig.1]  [E]



************************************

| x  Dead note
| <  
| >  

************************************

            
            
Suggest correction
Creating personal tab
Creating personal tab
You can edit any tab online and save it as your Personal.

You can edit, replace or remove any tab part or add personal notes – all changes will be seen only by you.

Personal tabs can be accessed anytime from any device, even offline.
Learn more »
comments
print report bad tab
1 comment total.
0 reply
guy_muggsley 10 Jan 26, 2010 12:07 PM

This is exactly how Ray plays it. Great job

guest
You may want to rate the tab now too:
select rating
Wanna post a correction for this tab? Suggest correction