Oops, an error
Loading. Please wait.

Beg Steal Or Borrow Bass Tab

875 views 3 this week
no commentswrite comment
1 2 3 4 5
2 more votes to show rating
add to favorites
launch autoscroll
font size
0
reset
guitar tuner
Autoscroll
slow
fast
+/-
esc
set tempo
stop
Help us to improve Ultimate-Guitar.com Take our survey!
×
Author
Difficulty
novice
-------------------------------------------------------------------------------
			     BEG STEAL OR BORROW - Ray Lamontagne
-------------------------------------------------------------------------------

Tabbed By : manonfire73

Tuning: Standard
(Intro)
G|---------------------------------------------------------------------------|
D|---------------------------------------------------------------------------|
A|-4-4-4-4-4-4-4-4-2-2-2-2---------(3x)--------------------------------------|
E|-------------------------2-2-2-2-------------------------------------------|
(Verse) - same as intro, but insert this before re-playing it)
G|---------------------------------------------------------------------------|
D|---------------------------------------------------------------------------|
A|-4-4-4-4-4-4-4-4-(2x)------------------------------------------------------|
E|---------------------------------------------------------------------------|
(Chorus)
G|---------------------------------------------------------------------------|
D|---------------------------------------------------------2-2-2-2-2-2-2-2---|
A|---------2-2-2-2---------4-4-4-4---------2-2-2-2---------------------------|
E|-4-4-4-4---------2-2-2-2---------4-4-4-4---------2-2-2-2-------------------|
(return to intro after the bit below, until the next verse)
G|---------------------------------------------------------------------------|
D|-2-2-2-2-------------------------------------------------------------------|
A|---------------------------------------------------------------------------|
E|---------------------------------------------------------------------------|
(Bridge)
G|-----------------------------------------------------------------------------|
D|-----------------------------------------------------------------------------|
A|-2-2-2-2-2-2-2-2-2-2-2-2-2-2-2-2---------(2x)-------2------------------------|
E|---------------------------------4-4-4-4------2-2-2--------------------------|
(return to verse)

Not comprehensive, but this should at least give you an idea of where to start. Thank 
you for checking this out!
Suggest correction
Give kudos to tab author, rate the tab!
1 2 3 4 5
comments
print report bad tab
guest
You may want to rate the tab now too:
select rating
Wanna post a correction for this tab? Suggest correction