Oops, an error
Loading. Please wait.

Shelter Chords

version 1
version 1

Whole song

247,298 views 243 this week
6 commentsread comments
1 2 3 4 5
x 61
add to favorites
launch autoscroll
font size
0
reset
transpose
0
reset
simplify chords
display chords
guitar tuner
Autoscroll
slow
fast
+/-
esc
set tempo
stop
Help us to improve Ultimate-Guitar.com Take our survey!
×
Ray LaMontagne
Shelter
Tabbed by Dave Hamilton

Chords - ( ) are optional, < > are hammered-on occasionally

----C--F/D--G--Cadd9/B--Am--E7--F---Bb--D#---

e|--0---1---3-----0-----0---0--(0)-------------------------------|
B|--1---1---0-----1-----1---3---1---3---4------------------------|
G|--0---2---0-----0-----2---1--<2>--3---3------------------------|
D|-<2>--0---0-----0-----2---2---3---3---1------------------------|
A|--3--(0)--2-----2-----0---2--(3)--1----------------------------|
E|----------3---------------0------------------------------------|


[Intro]  

[C] [F/D] [G] [C] [Cadd9/B] [Am] [E7] [F] [C] [G] X2


[Verse]

[C]I guess you [F/D]don't need it [G]
I guess you don't [C]want me [Cadd9/B]to repeat it [Am]
But everything I [E7]have to give I'll [F]give to you [C] [G]
[C]It's not [F/D]like we planned it [G]
You tried to stay, [C]but you [Cadd9/B]could not stand it [Am]
To see me shut down [E7]slow
As though it was an [F]easy thing to do [C]
[G]Listen when


[Chorus]

[C]All of this around[F] us'll fall over
I tell you what we're gonna do[C] [G]
[C]You will [E]shelter me [F]my love[C] [G]
[C]And I [F/D]will [G]shelter yo[F]u
I will shel[C]ter you [F/D]
[G] [C] [Cadd9/B] [Am] [E7] [F] [C] [G]


[Verse]

[C]I left [F/D]you heartbroken,
[G]but not until [C]those very [Cadd9/B]words were spoken[Am]
Has anybody [E7]ever made such a [F]fool out of you [C] [G]
[C]It's hard [F/D]to believe it [G]
Even as my [C]eyes [Cadd9/B]do see it [Am]
The very things that [E7]make you live are [F]killing you [C]
[G]Listen when


[Chorus]

[C]All of this around[F] us'll fall over
I tell you what we're gonna do[C] Hey[G]
[C]you will [E]shelter me [F]my love [C] [G]
[C]I [Bb]will [F]shelter you [D#]
I will [C]shelter you [Bb]
I will [F]shelter you [D#]
I will [C]shelter you [Bb]
I will [F]shelter you [D#]
[C] [F/D] [G] [C] [Cadd9/B] [Am] [E7] [F] [C]


[G]Listen When
[C]All of this around[F] us'll fall over
I tell you what we're gonna do[C] Hey[G]
[C]you will [E]shelter me [F]my love [C] [G]
[C]I [Bb]will [F]shelter you [C]
If you [F]shelter me too[C]
I will [F]shelter [C]you
I will [F]shelter [C]you


Little F riff that's occasionally used:

e|--------------0------------------------------------------------|
B|--1---1-------1------------------------------------------------|
G|--0h2-0--(0)--0------------------------------------------------|
D|--3---3---0---2------------------------------------------------|
A|--------------3------------------------------------------------|
E|---------------------------------------------------------------|



************************************

| (n)  Ghost note
| h    Hammer-on

************************************
Suggest correction
comments
print report bad tab
6 comments total. Showing first comments.
0 reply
Pharcyde036 26 Dec 04, 2007 01:04 PM

nailed the chords perfectly for a sick song bro...nicely done!

0 reply
whatchucare 10 Apr 11, 2009 10:23 PM

Really great, but something doesn't really sound right about that D#.

0 reply
guy_muggsley 10 Jan 05, 2010 05:45 PM

this tab is spot on in my opinion. RE the comment above, when Ray plays it live he uses the D sharp variation where you bar the third fret - just flick through the variations and you'll see it. try that one and see what you think.

guest
You may want to rate the tab now too:
select rating
Wanna post a correction for this tab? Suggest correction