Oops, an error
Loading. Please wait.

You Are The Best Thing bass

31 views 3 this week
no commentswrite comment
1 2 3 4 5
3 more votes to show rating
add to favorites
×
Save as Personal and add changes to this tab that will be seen only by you. Learn more ›
×
You can save this tab as Personal to edit and correct it or add notes. All changes will be seen only by you. Learn more »
launch autoscroll
font size
0
reset
guitar tuner
edit
Autoscroll
slow
fast
+/-
esc
set tempo
stop
**I am referencing this track, https://www.youtube.com/watch?v=vJ3xTjvj9tw , to write this tab.
This tab is spot on, though the only part I am slightly unsure of, since it is dificult to make out, is
the 10th measure in the Bridge. Notice that the low E string is dropped a full step to D, which is needed 
if you are not holding a 5string bass. 


Time Signature: 2/2


[Intro]
  1       2        1  2 + 1  + 2 +                         1 2 + a  1  + 2 +
g|-------3--------|-------|---------|-----|-------3-----3-|---------|---------|------|
d|-3--5-------5-3-|----3--|0--0---5-|-----|-3--5-----5----|-----0-1-|3--4---5-|------|
a|----------------|-1----1|---------|-----|---------------|-1-------|---------|------|
D|----------------|-------|---------|-----|---------------|---------|---------|------|



|-----3-----3-|---------|--------|-----|------|----|--------|-----|------3------|
|3--5-----5---|-----0-1-|3--4---5|-----|3--3--|----|--------|-----|3--5-----5-3-|
|-------------|-1-------|--------|-----|------|----|-------1|-----|-------------|
|-------------|---------|--------|-----|-----1|----|3--3----|-----|-------------|

[verse 1]
             (Hold)                   (Hold)                       (Hold)                    (Hold)
|----|---------|--|------|----|---------|--|---3\-x-|----|-----------|--|------|------|--------|--|--------|
|----|---------|--|------|----|---------|--|--------|----|-----------|--|------|------|------3-|--|5-3-----|
|1---|---------|--|------|1---|---------|--|--------|1---|-----------|--|------|------|--1-3---|--|----5-3-|
|----|3--3---5-|--|1--1--|----|3--4---5-|--|1-------|----|3--3--4--5-|--|1--1--|3--3--|3-------|--|--------|
  Baby           its been a long day     Things aint been going my way  To clear my mind      All the time    
                          Baby                  Now I need you here 

[Verse 2]
             (Hold)                   (Hold)                       (Hold)                    (Hold)
|----|---------|--|------|----|---------|--|--------|----|-----------|--|------|------|--------|--|--------|
|----|---------|--|1--3--|----|3--3-----|--|1---1---|----|-----------|--|------|------|------3-|--|5-3-----|
|1---|---------|--|------|1---|---------|--|--------|1---|-----------|--|------|------|--1-3---|--|----5-3-|
|----|3--3---5-|--|------|----|-------5-|--|--------|----|3--4-----5-|--|1--1--|3--3--|3-------|--|--------|
 Baby            The way you move me       Its like you see Right       Believe me even have     Oh, Because
                          Crazy        Through me and make it easier                to Try


[Chorus]

 1   2   1  +  2  +
|-------|-----------|---|-------3--------|---------|---------|------|
|-------|---------5-|---|-3--5-------5-3-|-----0-1-|3--4---5-|------|
|1-/-13-|5--5-------|---|----------------|-1-------|---------|------|
|-------|-----------|---|----------------|---------|---------|------|
  You are the best thing                   You are the best thing  


|-----3-----3-|---------|--------|-----|------|----|--------|-----|------3------|
|3--5-----5---|-----0-1-|3--4---5|-----|3--3--|----|--------|-----|3--5-----5-3-|
|-------------|-1-------|--------|-----|------|----|-------1|-----|-------------|
|-------------|---------|--------|-----|-----1|----|3--3----|-----|-------------|
               you are the best thing           evev happen to me    


[Verse 3]
             (Hold)                   (Hold)                       (Hold)                    (Hold)
|----|---------|--|------|----|---------|--|--------|----|-----------|--|------|------|--------|--|--------|
|----|---------|--|1--3--|----|3--3-----|--|1---1---|----|3--3-------|--|---3--|------|------3-|--|5-3-----|
|1---|---------|--|------|1---|---------|--|--------|1---|-----------|--|------|------|--1-3---|--|----5-3-|
|----|3--3---5-|--|------|----|-------5-|--|--------|----|------3--5-|--|1-----|3--3--|3-------|--|--------|
 Baby          Come a long way           You know i hope               When I say 
                         Baby       and i pray that you believe me       This love will never fade away


[Chorus 2]

 1   2   1  +  2  +
|-------|-----------|--|-------3--------|---------|---------|------|
|-------|---------5-|--|-3--5-------5-3-|-----0-1-|3--4---5-|------|
|1-/-13-|5--5-------|--|----------------|-1-------|---------|------|
|-------|-----------|--|----------------|---------|---------|------|
   you are the best thing                 You are the best thing

|-----3-----3-|---------|--------|-----|------|----|--------|-----|----------|
|3--5-----5---|-----0-1-|3--4---5|-----|3--3--|----|--------|-----|----------|
|-------------|-1-------|--------|-----|------|----|-------1|-----|---8---9--|
|-------------|---------|--------|-----|-----1|----|3--3----|-----|----------|
                you are the best thing     That ever happened to me
 

[Bridge]  1 e + a 2 e +  1 e   a 2    a 1  +  2 e
|--------|--------------|--------------|----------|
|--------|--------------|--------------|------3---|
|--10\-X-|----------3-5-|5-5---5-5----3|5--5----5-|
|--------|5-7---8-------|--------------|----------|
         Both of us have 
                    know love before         

|--------|--------------|--------------|----------|
|-5------|--------------|--------------|------3---|
|--------|----------3-5-|5-5---5-5----3|5--5----5-|
|-----5--|5-7---8-------|--------------|----------|
         Come on promising            to walk on out the 
                       like spring


 1  a 2   1 + 2 +  1  2   1 e  a  2 e +          a 1  +   1 + 2 +
|--------|--------|------|--------------|---------|------|--------|--------|
|--------|--------|------|8-6--5--------|---------|1-----|--------|--------|
|6--6-6--|--------|------|----------8-5-|6--6-6---|------|--------|--------|
|--------|3-5-6-7-|8--8--|--------------|--------1|---1--|3-3-3-3-|3-3-3-3-|
 Door    Hearts are strong                    Let me tell you just
               Our hearts are kind                  exactly ehat on my mind
[Chorus]

            1  +  2  +
|----------|-----------|---|-------3--------|-----------|-----------|----|
|----------|---------5-|---|-3--5-------5-3-|-----------|0--3-----5-|----|
|1-----1-3-|5--5-------|---|----------------|-1-----1-3-|-----------|----|
|----------|-----------|---|----------------|-----------|-----------|----|
  You are the best thing                        you are the best thing

|-----3-----3-|---------|--------|-----|------|----|--------|-----|------3------|
|3--5-----5---|-----0-1-|3--4---5|-----|3--3--|----|--------|-----|3--5-----5-3-|
|-------------|-1-------|--------|-----|------|----|-------1|-----|-------------|
|-------------|---------|--------|-----|-----1|----|3--3----|-----|-------------|
                 you are the best thing   that ever happened to me

 1  +  2  +
|---3--------|-----------|---|-------3--------|-----------|-----------|----|
|------------|---3-----5-|---|-3--5-------5-3-|-----------|0--3-----5-|----|
|1-----1--3--|5----------|---|----------------|-1-----1-3-|-----------|----|
|------------|-----------|---|----------------|-----------|-----------|----|
  you are the best thing                          you are the best thing  

                1   2 +
|-----3-----3-|-----3----|3--3-----|-----|------|----|--------|-----|------3------|
|3--5-----5---|-------3--|--------5|-----|3--3--|----|--------|-----|3--5-----5-3-|
|-------------|-1--------|---------|-----|------|----|-------1|-----|-------------|
|-------------|----------|---------|-----|-----1|----|3--3----|-----|-------------|
                 you are the best thing          ever happened to me


[Outro Chorus]
  1  2                  
|-------|---------|-----|-------3-----3-|-------|---------|------|
|-------|3-3----5-|-----|-3--5-----5----|-------|0-3----5-|------|
|-1--1--|---------|-----|---------------|-1--1--|---------|------|
|-------|---------|-----|---------------|-------|---------|------|
                      Yea yea                      

                                                          (Hold)
|-----3-----3-|---------|--------|-----|------|----|--------|-----|--------|
|3--5-----5---|-----0-1-|3--4---5|-----|3--3--|----|--------|-----|--------|
|-------------|-1-------|--------|-----|------|----|-------1|-----|--------|
|-------------|---------|--------|-----|-----1|----|3--3----|-----|--------|
Yea yea                                    na na na

Suggest correction
Creating personal tab
Creating personal tab
You can edit any tab online and save it as your Personal.

You can edit, replace or remove any tab part or add personal notes – all changes will be seen only by you.

Personal tabs can be accessed anytime from any device, even offline.
Learn more »
Give kudos to tab author, rate the tab!
1 2 3 4 5
comments
print report bad tab
guest
You may want to rate the tab now too:
select rating
Wanna post a correction for this tab? Suggest correction