Oops, an error
Loading. Please wait.

Ghostbusters Tab

version 1
version 1

Whole song

Interactive

Video

46,402 views 150 this week
3 commentsread comments
1 2 3 4 5
1 last vote to show rating
add to favorites
launch autoscroll
font size
0
reset
how to read this tab
guitar tuner
×
Best way to learn
"Ghostbusters"
Autoscroll
slow
fast
+/-
esc
set tempo
stop
Author
Difficulty
  follow
novice
-------------------------------------------------------------------------------
                             Ghostbusters - Ray Parker Jr.
-------------------------------------------------------------------------------
Tabbed by:slurms
Email:slurms.mckenzie@hotmail.com

Tuning:EADGBE


Tabbed as request for dridge-fender. Any more requests welcome :-)


[Intro]
e|-------------------|----|
B|-------------------|----|
G|---4-------2-------|----|
D|---4-------2-------|-x8-|
A|-2-2-------0-------|----|
E|-----0-2-4---0-4-0-|----|
   .   . . .     . .


[Intro]

(Lead Guitar)
e|--------------------------------|----|
B|--------------------------------|----|
G|-------8---6--------------------|----|
D|--9-9----9---7---9-9-9-9--7-9-6-|-x2-|
A|--------------------------------|----|
E|--------------------------------|----|


[Verse]

(Lead Guitar)
e|-------------------|----|
B|-------------------|----|
G|---4-------2-------|----|
D|---4-------2-------|-x16|
A|-2-2-------0-------|----|
E|-----0-2-4---0-4-0-|----|
   .   . . .     . . 


[Verse]

(Rhythm Guitar,In time with lead guitar)
e|------------------|----|
B|------------------|----|
G|---4-------2------|----|
D|---4-------2---6--|-x16|
A|---2-------0---7--|----|
E|---------------4--|----|


[Chorus]

(Lead Guitar)
e|----------------------------|----------------------------|----|-Harmonise-With|
B|----------------------------|----------------------------|----|---------------|
G|-7---7---7---7---7----------|-7---7---7---7---7----------|----|------11-------|
D|---9---9---9---9---9--7h8h9-|---9---9---9---9---9--7h8h9-|-x2-|--------12-----|
A|----------------------------|----------------------------|----|---------------|
E|----------------------------|----------------------------|----|-Second-Time---|


[Chorus]

(Rhythm Guitar)
e|----------------------------|----------------------------|----|
B|----------------------------|----------------------------|----|
G|-4~------2~-----------------|----------------------------|----|
D|-4~------2~-----------------|-6~-------2~----------------|-x2-|
A|-2~------0~-----------------|-6~-------2~----------------|----|
E|----------------------------|-4~-------0~----------------|----|


[Verse]

(Lead Guitar)
e|-------------------|----|
B|-------------------|----|
G|---4-------2-------|----|
D|---4-------2-------|-x16|
A|-2-2-------0-------|----|
E|-----0-2-4---0-4-0-|----|
   .   . . .     . . 


[Verse]

(Rhythm Guitar,In time with lead guitar)
e|------------------|----|
B|------------------|----|
G|---4-------2------|----|
D|---4-------2---6--|-x16|
A|---2-------0---7--|----|
E|---------------4--|----|


[Interlude]

(Lead Guitar)
e|-------------|------------|----|
B|--15--14-----|-14--10--12-|----|
G|----------14-|------------|----|
D|-------------|------------|-x2-|
A|-------------|------------|----|
E|-------------|------------|----|

e|-------------|------------|----|
B|-------------|------------|----|
G|--4---2~-----|--4---2~----|----|
D|--4---2~-----|--4---2~----|-x2-|
A|--2---0~-----|--2---0~----|----|
E|-------------|------------|----|


[Middle] 

(Rhythm Guitar)
e|-------------------|-----|
B|-------------------|-----|
G|---4-------2-------|-----|
D|---4-------2-------|-x16-|
A|-2-2-------0-------|-----|
E|-----0-2-4---0-4-0-|-----|
   .   . . .     . .


[Middle] 

(Lead Guitar)
e|--------------------------------|----|
B|--------------------------------|----|
G|-------8---6--------------------|----|
D|--9-9----9---7---9-9-9-9--7-9-6-|-x4-|
A|--------------------------------|----|
E|--------------------------------|----|


[Interlude]

(Lead Guitar)
e|-------------|------------|----|
B|--15--14-----|-14--10--12-|----|
G|----------14-|------------|----|
D|-------------|------------|-x2-|
A|-------------|------------|----|
E|-------------|------------|----|

e|-------------|------------|----|
B|-------------|------------|----|
G|--4---2~-----|--4---2~----|----|
D|--4---2~-----|--4---2~----|-x2-|
A|--2---0~-----|--2---0~----|----|
E|-------------|------------|----|


[Chorus]

(Lead Guitar)
e|----------------------------|----------------------------|----|-Harmonise-With|
B|----------------------------|----------------------------|----|---------------|
G|-7---7---7---7---7----------|-7---7---7---7---7----------|----|------11-------|
D|---9---9---9---9---9--7h8h9-|---9---9---9---9---9--7h8h9-|-x2-|--------12-----|
A|----------------------------|----------------------------|----|---------------|
E|----------------------------|----------------------------|----|-Second-Time---|


[Chorus]

(Rhythm Guitar)
e|----------------------------|----------------------------|----|
B|----------------------------|----------------------------|----|
G|-4~------2~-----------------|----------------------------|----|
D|-4~------2~-----------------|-6~-------2~----------------|-x2-|
A|-2~------0~-----------------|-6~-------2~----------------|----|
E|----------------------------|-4~-------0~----------------|----|


All Rights To Ray Parker Jr http://www.rayparkerjr.com/

************************************

| .  palm mute
| /  slide up
| \  slide down
| h  hammer-on
| p  pull-off
| ~  vibrato
| +  harmonic
| x  Mute note

************************************
Suggest correction
Give kudos to tab author, rate the tab!
1 2 3 4 5
comments
print report bad tab
3 comments total.
0 reply
razzer858 10 Feb 28, 2008 11:13 AM

Brilliant tab i liek the way u ahve wrote the lead nd rhthym parts sperate sound dude Brill tab keep it up

0 reply
The Fourth 10 Aug 25, 2014 03:26 AM

Lack of accuracy.

0 reply
FancyGuitarist 10 Jan 18, 2017 12:21 AM

On the first part it dosnt sound right

guest
You may want to rate the tab now too:
select rating
Wanna post a correction for this tab? Suggest correction