Oops, an error
Loading. Please wait.

Twee Meisjes chords

4,666 views 48 this week
2 commentsread comments
1 2 3 4 5
x 7
add to favorites
×
Save as Personal and add changes to this tab that will be seen only by you. Learn more ›
×
You can save this tab as Personal to edit and correct it or add notes. All changes will be seen only by you. Learn more »
launch autoscroll
font size
0
reset
transpose
0
reset
simplify chords
display chords
guitar tuner
edit
Autoscroll
slow
fast
+/-
esc
set tempo
stop
Author
Difficulty
Strumming
There is no strumming pattern for this song yet. and get +5 IQ
[Intro]

    Dm               A7                Dm      Dm  Dm/C
E|--5----5---5---6---5--------------6--5------------------|
B|--6--6---6---------8--5--8--5--8-----6--6---------------|
G|--7----------------6----------------------7-------------|
D|--7----------------5-------------------------7----7-----|
A|--5----------------7-----------------5-------5----3-----|
E|-------------------5------------------------------------|

    A#                Gm        A                  Dm
E|--5----6---6---8----3---------5------------------5------|
B|--6--7---7----------3---------5--8--6-5--5-------6------|
G|--7-----------------3---------6-------------6----7------|
D|--8-----------------5---------5------------------7------|
A|--8-----------------5---------7------------------5------|
E|--6-----------------3---------5-------------------------|


[Chorus]

Dm                  A
Twee meisjes op het strand
             Dm    Dm  Dm/C
Ze lezen modebladen
Bb               Gm
Ze kijken in het rond
A                 Dm
Ze dromen van een prins


[Interlude]

Dm  A  D  Gm  A  Dm Dm/C  Bb A  Dm   2x


[Chorus]

Dm                  A
Twee meisjes op het strand
             Dm    Dm  Dm/C
Ze lezen modebladen
Bb               E
Ze kijken in het rond
A                 Dm
Ze dromen van een prins


[Verse]

Dm               A
Ze zoeken in hun tas
                  Dm    Dm  Dm/C
Ze wijzen naar de foto's
Bb               E
Ze schudden met hun haar
A                 Dm
Ze praten met een vriend

F                   C
Twee meisjes op een plank
A                Dm Dm/C 
Gedragen door de golven
Bb                 Gm
Het branden van de zon
E                 A
De wijzers houden op

Dm               A
De dag brengt ouderdom
                  Dm    Dm  Dm/C
De nacht brengt vreemde uren
Bb               E
Het deken is zo zwaar
A                 Dm
Een bladzijde slaat om


[Solo]
   
Dm  A     Dm Dm/C  Bb  E   A  Dm   
Dm  A     Dm Dm/C  Bb  E   A  Dm C 
F   C  A  Dm Dm/C  Bb  Gm  E  A    
Dm  A     Dm Dm/C  Bb  E   A  Dm   
Dm  A     Dm Dm/C  Bb  E   A  Dm           
Dm  A     Dm Dm/C  Bb  E   A  Dm C  
F   C  A  Dm Dm/C  Bb  Gm  E  A    
Dm  A     Dm Dm/C  Bb  E   A  Dm   


[Outro]

    Dm               A7                Dm      Dm  Dm/C
E|--5----5---5---6---5--------------6--5------------------|
B|--6--6---6---------8--5--8--5--8-----6--6---------------|
G|--7----------------6----------------------7-------------|
D|--7----------------5-------------------------7----7-----|
A|--5----------------7-----------------5-------5----3-----|
E|-------------------5------------------------------------|

    A#                Gm        A                  Dm
E|--5----6---6---8----3---------5------------------5------|
B|--6--7---7----------3---------5--8--6-5--5-------6------|
G|--7-----------------3---------6-------------6----7------|
D|--8-----------------5---------5------------------7------|
A|--8-----------------5---------7------------------5------|
E|--6-----------------3---------5-------------------------|

            
            
Suggest correction
Creating personal tab
Creating personal tab
You can edit any tab online and save it as your Personal.

You can edit, replace or remove any tab part or add personal notes – all changes will be seen only by you.

Personal tabs can be accessed anytime from any device, even offline.
Learn more »
comments
print report bad tab
2 comments total.
+1 reply
leander_van_h1 10 Jan 25, 2017 09:32 AM

je moet hier echt eens de (piano)-solo voor opzoeken :-)

0 reply
michel.vk97 10 Aug 28, 2017 03:15 PM

heerlijk nummer, goede tab

guest
You may want to rate the tab now too:
select rating
Wanna post a correction for this tab? Suggest correction