Oops, an error
Loading. Please wait.

Children Of The Night tab

by Razihel
85 views 1 this week
2 commentsread comments
1 2 3 4 5
2 more votes to show rating
add to favorites
×
Save as Personal and add changes to this tab that will be seen only by you. Learn more ›
×
You can save this tab as Personal to edit and correct it or add notes. All changes will be seen only by you. Learn more »
launch autoscroll
font size
0
reset
how to read this tab
guitar tuner
edit
Autoscroll
slow
fast
+/-
esc
set tempo
stop
Author
Difficulty
[Intro] 01:03

e|-----------------|-----------------|-----------------|-----------------|
B|-----------------|-----------------|-----------------|-----------------|
G|-----------------|-----------------|-----------------|-----------------|
D|-------0---------|-----------------|-------0---------|-----------------|
A|-----1---3-1-0-1-|-----1-1-----0-0-|-----1---3-1-0-1-|-----1-1---------|
E|-3-3-------------|-3-3-----2-2-----|-3-3-------------|-3-3-----2-2-2-2-|

e|-----------------|-----------------|-----------------|-----------------|
B|-----------------|-----------------|-----------------|-----------------|
G|-----------------|-----------------|-----------------|-----------------|
D|-------0---------|-----------------|-------0---------|-----------------|
A|-----1---3-1-0-1-|-----1-1-----0-0-|-----1---3-1-0-1-|---------1-1-----|
E|-3-3-------------|-3-3-----2-2-----|-3-3-------------|-3-3-3-3-----2-2-|

 
[Pre-Chorus]

e|-----------------|
B|-----------------|
G|-----------------|
D|-------0---------| x 7
A|-----1---3-1-0-1-|
E|-3-3-------------|

   ...we're the children of the night!!

[Chorus]

e|--------------------------------|--------------------------------|
B|------3-------------------------|------3-------------------------|
G|----3---5p3-2h3-----3-------2~~-|----3---5p3-2h3-----3-----------|
D|--5-------------5-------4-------|--5-------------5-------4-------|
A|--------------------------------|--------------------------------|
E|--------------------------------|--------------------------------|

                                                   PM    PM  PM
e|--------------------------------|--------------------------------------|
B|------3-------------------------|------3-------------------------------|
G|----3---5p3-2h3-----3-------2~~-|----3---5p3-2h3-----------(3)-3-------|
D|--5-------------5-------4-------|--5------------(5)-5-(5)-5-------4----|
A|--------------------------------|--------------------------------------|
E|--------------------------------|--------------------------------------|

e|--------------------------------|--------------------------------|
B|------3-------------------------|------3-------------------------|
G|----3---5p3-2h3-----3-------2~~-|----3---5p3-2h3-----3-----------|
D|--5-------------5-------4-------|--5-------------5-------4-------|
A|--------------------------------|--------------------------------|
E|--------------------------------|--------------------------------|

e|--------------------------------|--------------------------------|
B|------3-------------------------|------3-------------------------|
G|----3---5p3-2h3-----3-------2~~-|----3---5p3-2h3-----------------|
D|--5-------------5-------4-------|--5-----------------------------|
A|--------------------------------|------------------------1-1-----|
E|--------------------------------|----------------3-3-3-3-----2-2-|

e|------------------------------------|--------------------------------|
B|------------------------------------|--------------------------------|
G|------------------------------------|--------------------------------|
D|--5-5-5-5-5-5-5-6-5-5-5-5-6p5--6~~--|--5-5-5-5-5-5-6-5-5-5-5-4---4---|
A|------------------------------------|--------------------------------|
E|------------------------------------|--------------------------------|

                                                       PM    PM  
e|------------------------------------|------------------------------------|
B|------------------------------------|------3-----------------------------|
G|------------------------------------|----3---5p3-2h3-------------3-3-----|
D|--5-5-5-5-5-5-5-6-5-5-5-5-6p5--6----|--5------------(5)-5-(5)-5------4---|
A|------------------------------------|------------------------------------|
E|------------------------------------|------------------------------------|


[Break] 02:41

e|----------------------------------|---------------------------------|
B|----------------------------------|---------------------------------|
G|----------------------------------|---------------------------------|
D|----1-1---0-0-0-------------------|---1-1---0-0-0-------------------|
A|------------------3-3-1p0-1-1-----|-----------------3-3-3-5-3-3-3-3-|
E|--3-----3-------3-------------3-3-|-3-----3-------3-----------------|

e|----------------------------------|---------------------------------|
B|----------------------------------|---------------------------------|
G|----------------------------------|---------------------------------|
D|----1-1---0-0-0-------------------|---1-1---------------------------|
A|------------------3-3-1-0-1-------|---------3-3-3-3-1-1-0-0---------|
E|--3-----3-------3----------h3-3-3-|-3-----3-----------------3-------|

 
[Chorus] 02:56

e|----------------------------------|---------------------------------|
B|---4-4-4-3---3--------------------|---4-4-4-3---3---------3---------|
G|-----------------5-5-3-2-3--------|-----------------5---5---5-------|
D|-----------------------------5----|---------------------------------|
A|----------------------------------|---------------------------------|
E|----------------------------------|---------------------------------|

e|----------------------------------|---------------------------------|
B|---4-4-4-3---3--------------------|---------------------------------|
G|-----------------5-5-3-2-3--------|---3-3-3-5---5---3---2-3---------|
D|-----------------------------5----|-------------------------5-------|
A|----------------------------------|---------------------------------|
E|----------------------------------|---------------------------------|


[Chorus 2] 03:26

e|--------------------------------|--------------------------------|
B|------3-------------------------|------3-------------------------|
G|----3---5p3-2h3-----3-------2~~-|----3---5p3-2h3-----3-----------|
D|--5-------------5-------4-------|--5-------------5-------4-------|
A|--------------------------------|--------------------------------|
E|--------------------------------|--------------------------------|

                                                   PM    PM  PM
e|--------------------------------|--------------------------------------|
B|------3-------------------------|------3-------------------------------|
G|----3---5p3-2h3-----3-------2~~-|----3---5p3-2h3-----------(3)-3-------|
D|--5-------------5-------4-------|--5------------(5)-5-(5)-5-------4----|
A|--------------------------------|--------------------------------------|
E|--------------------------------|--------------------------------------|

e|--------------------------------|--------------------------------|
B|------3-------------------------|------3-------------------------|
G|----3---5p3-2h3-----3-------2~~-|----3---5p3-2h3-----3-----------|
D|--5-------------5-------4-------|--5-------------5-------4-------|
A|--------------------------------|--------------------------------|
E|--------------------------------|--------------------------------|

e|--------------------------------|--------------------------------|
B|------3-------------------------|------3-------------------------|
G|----3---5p3-2h3-----3-------2~~-|----3---5p3-2h3-----------------|
D|--5-------------5-------4-------|--5-----------------------------|
A|--------------------------------|------------------------1-1-----|
E|--------------------------------|----------------3-3-3-3-----2-2-|

e|------------------------------------|--------------------------------|
B|------------------------------------|--------------------------------|
G|------------------------------------|--------------------------------|
D|--5-5-5-5-5-5-5-6-5-5-5-5-6p5--6~~--|--5-5-5-5-5-5-6-5-5-5-5-4---4---|
A|------------------------------------|--------------------------------|
E|------------------------------------|--------------------------------|

                                                       PM    PM   
e|------------------------------------|------------------------------------|
B|------------------------------------|------3-----------------------------|
G|------------------------------------|----3---5p3-2h3-------------3-3-----|
D|--5-5-5-5-5-5-5-6-5-5-5-5-6p5--6----|--5------------(5)-5-(5)-5------4---|
A|------------------------------------|------------------------------------|
E|------------------------------------|------------------------------------|


************************************

| h   Hammer-on
| p   Pull-off
| ~   Vibrato
| PM  Palm mute

************************************

            
            
Suggest correction
Creating personal tab
Creating personal tab
You can edit any tab online and save it as your Personal.

You can edit, replace or remove any tab part or add personal notes – all changes will be seen only by you.

Personal tabs can be accessed anytime from any device, even offline.
Learn more »
Give kudos to tab author, rate the tab!
1 2 3 4 5
comments
print report bad tab
2 comments total.
0 reply
Pux3 51 Apr 20, 2017 12:25 AM

You have made most of my requests. Thank you again!!

guest
You may want to rate the tab now too:
select rating
Wanna post a correction for this tab? Suggest correction