Oops, an error
Loading. Please wait.

Om Igjen Tab

28 views 3 this week
no commentswrite comment
1 2 3 4 5
3 more votes to show rating
add to favorites
launch autoscroll
font size
0
reset
how to read this tab
guitar tuner
Autoscroll
slow
fast
+/-
esc
set tempo
stop
Help us to improve Ultimate-Guitar.com Take our survey!
×
Author
Difficulty
novice
--------OM IGJEN - RAZIKA---------------------------------------
 Tabbed by: Rafael González Email:  
Tuning: standard

Rhythm Guitar 
Chords
e|--5-------10--------7--------7---(7)------------------------------------------|
B|--5-------10--------7--------7---(7)------------------------------------------|
G|--5-------11--------7--------8---(9)------------------------------------------|
D|--7-------12--------9--------9---(9)------------------------------------------|
A|--7-------12--------9--------9---(9)------------------------------------------|
E|--5-------10--------7--------7---(7)------------------------------------------|

Lead Guitar
[Intro]
e|----------------------------------|-------------------------------------------|
B|----------------------------------|-------------------------------------------|
G|----------------------------------|-------------------------------------------|
D|------------------------------7-9-|-------------------------------------------|
A|-----9-7-5----------5-6-7---------|---9-7-5---------5-6-7---------------------|
E|--8----------5-6-7----------------|-8-----------5-6-7-------------------------|


Part 2
e|--------------------|---------------------------------------------------------|
B|-13-12-10-----------|---------------------------------------------------------|
G|--------------12-11-|-/11------11------11------11-----------------------------|
D|--------------------|--------12------12------12-------9--12--9--12--9--12-----|
A|--------------------|---------------------------------------------------------|
E|--------------------|---------------------------------------------------------|


e|----------12--------|---------------------------------------------------------|
B|-13-12--------------|---------------------------------------------------------|
G|--------------12-11-|-/11------11------11------11-----------------------------|
D|--------------------|--------12------12------12-------9--12--9--12--9--7------|
A|--------------------|---------------------------------------------------------|
E|--------------------|---------------------------------------------------------|

[Bridge]
e|------------------------------------------------------------------------------|
B|------------------------------------------------------------------------------|
G|--------7------------------------------7-----9--------------------------------|
D|--7--9-----9------------------7--9--------------------------------------------|
A|---------------10--9--7--9--10------------------------------------------------|
E|------------------------------------------------------------------------------|



************************************

| (n)  Ghost note
| /    Slide up

************************************
Suggest correction
Give kudos to tab author, rate the tab!
1 2 3 4 5
comments
print report bad tab
guest
You may want to rate the tab now too:
select rating
Wanna post a correction for this tab? Suggest correction