Oops, an error
Loading. Please wait.

Apologia tab

21 views 1 this week
no commentswrite comment
1 2 3 4 5
3 more votes to show rating
add to favorites
×
Save as Personal and add changes to this tab that will be seen only by you. Learn more ›
×
You can save this tab as Personal to edit and correct it or add notes. All changes will be seen only by you. Learn more »
launch autoscroll
font size
0
reset
how to read this tab
guitar tuner
edit
Autoscroll
slow
fast
+/-
esc
set tempo
stop
Intro

e|-----------0------------------------------------------------------|
B|---------0---0-------0-----0-------------0-----------0------------|
G|-------0-------0---0-----0-----0-----0-----0-----0-----0----------|
D|-----2-----------5-----4-----2-----4---4-------2---2--------------|
A|---2-----------------------------5-----------3--------------------|
E|-0----------------------------------------------------------------|


e|-----------0---------------------2-0-0-0--------------------------|
B|---------0---0-------0-----0-----3-3-3-3-3-----------1------------|
G|-------0-------0---0-----0-----0-2-2-2-2---2-----0-----0----------|
D|-----2-----------5-----4-----2-----------------2---2--------------|
A|---2-----------------------------------------3--------------------|
E|-0----------------------------------------------------------------|


e|-----------0------------------------------------------------------|
B|---------0---0-------0-----0-------------0-----------0------------|
G|-------0-------0---0-----0-----0-----0-----0-----0-----0----------|
D|-----2-----------5-----4-----2-----4---4-------2---2--------------|
A|---2-----------------------------5-----------3--------------------|
E|-0----------------------------------------------------------------|


e|----------0---------------------2-0-0-0-----------------------------|
B|--------0---0-------0-----0-----3-3-3-3-3---------1-----------------|
G|------0-------0---0-----0-----0-2-2-2-2---2-----0---0---------------|
D|----2-----------5-----4-----2-----------------2-------2-------------|
A|--2-----------------------------------------3-----------3-----5-----|
E|0---------------------------------------------------------2-3---3-0-|


e|-----------0-------------------------------0-----------------------|
B|---------0---0-----------0---------------0---0-----------0---------|
G|-------0-------0-----0-----0-----------0-------0-----0-----0-------|
D|-----2-------------2---2-----2-------2-------------4---4-----4-----|
A|---2-------------3-------------3---2-------------5-------------5---|
E|-0-------------------------------0---------------------------------|
             Buscando   un   porque               El mal tomo su ser


e|-----------0-------------------------------0-----------------------|
B|---------0---0-----------0---------------0---0-----------0---------|
G|-------0-------0-----0-----0-----------0-------0-----0-----0-------|
D|-----2-------------2---2-----2-------2-------------4---4-----4-----|
A|---2-------------3-------------3---2-------------5-------------5---|
E|-0-------------------------------0---------------------------------|
                   Negando mi crecer


e|-----0---0---------------------------0---2---3-2-------------------|
B|-------1---1-----------------------0---0---0-----3-----------------|
G|-------------2-------------0-----0---------------------------------|
D|---2-------------------0-----0-0-----------------------------------|
A|-0-------------------2---2-----------------------------------------|
E|---------------0-2-3-----------------------------------------------|
        Apostaste     al       rencor

e|-------------------------------------------0---2---3---2-----------|
B|-------------1---------------0-----------0---0---0---0-------------|
G|---------0-----0---------------0-------0---------------------------|
D|-------2---2-----2-------0-------0---0-----------------------------|
A|-0-2-3-------------3---2---2-------2-------------------------------|
E|---------------------3---------------------------------------------|
               Imponiendo  el  dolor


e|-------------------------------------------------------------------|
B|-------------------------------------------------------------------|
G|-------------------------------------------------------------------|
D|-7-9---------12--7--9-7---------9-7-5-4-2--4--5------------4----7--|
A|-5-7---------10--5--7-5---------7-5-3-2-0--2--3------------2-5--5--|
E|-------------------------------------------------------------3-----|
     Recuerdo el ayer sediento en comprender la sangre que herede


e|-------------------------------------------------------------------|
B|-------------------------------------------------------------------|
G|-------------------------------------------------------------------|
D|-7-9---------12--7--9-7---------9-7-5-4-2-4-5----------------4----7|
A|-5-7---------10--5--7-5---------7-5-3-2-0-2-3----------------2-5--5|
E|---------------------------------------------------------------3---|
      Sufro al saber    que no pude tener     los padres que anhele


Gracias a vos la vida me enseño a ser como yo soy
Si me encontras seguro me veras erguido en mi andar
Me dignare a  forjar mi estirpe alzando la frente por siempre


(SOLO)

e|-------------------------------------------------------------------|
B|----------8-7-8-8/10-8-7h8h7--------------------------7-7h8h7------|
G|--------9--------------------9-7h9h7------9-9-----7-9---------9----|
D|------9------------------------------10-9-----7-9------------------|
A|--5/7--------------------------------------------------------------|
E|-------------------------------------------------------------------|


e|------------------------------15-14-12h14----12--------------------|
B|--12-10-8-7---10-8-7-----10-8-------------------15----15-13-10h12--|
G|------------9--------9-7-------------------------------------------|
D|-------------------------------------------------------------------|
A|-------------------------------------------------------------------|
E|-------------------------------------------------------------------|


e|-------------------------------------------------------------------|
B|-10-8-7-8---------------------------------------7-8-10-8-7h8h7---7-|
G|----------7-9-7-----------------------------7-9----------------9---|
D|----------------10-9-7-9-10-9--------7-9-10------------------------|
A|------------------------------7-9-10-------------------------------|
E|-------------------------------------------------------------------|


e|------10-----------------------------------------------------------|
B|-7/12----12-8h7----------------------------------------------------|
G|----------------9--------------------------------------------------|
D|-------------------------------------------------------------------|
A|-------------------------------------------------------------------|
E|-------------------------------------------------------------------|


e|-------------------------------------------------------------------|
B|-------------------------------------------------------------------|
G|-------------------------------------------------------------------|
D|-7-9-12-11-9-7-5-7-9--7-9-12-11-9-7-5-7-9--7-9-12-11-9-7-5-7-9-----|
A|-5-7-10-9--7-5-3-5-7--5-7-10-9--7-5-3-5-7--5-7-10-9--7-5-3-5-7-----|
E|-------------------------------------------------------------------|


e|-------------------------------------------------------------------|
B|-------------------------------------------------------------------|
G|-------------------------------------------------------------------|
D|-7-9-12-11-9-7-5-9-------------------------------------------------|
A|-5-7-10-9--7-5-3-7-------------------------------------------------|
E|-------------------------------------------------------------------|

Espero que les sirva y aguante Razones
Suggest correction
Creating personal tab
Creating personal tab
You can edit any tab online and save it as your Personal.

You can edit, replace or remove any tab part or add personal notes – all changes will be seen only by you.

Personal tabs can be accessed anytime from any device, even offline.
Learn more »
Give kudos to tab author, rate the tab!
1 2 3 4 5
comments
print report bad tab
guest
Wanna post a correction for this tab? Suggest correction