Oops, an error
Loading. Please wait.

El Vuelo Final tab

5 views 1 this week
no commentswrite comment
1 2 3 4 5
3 more votes to show rating
add to favorites
×
Save as Personal and add changes to this tab that will be seen only by you. Learn more ›
×
You can save this tab as Personal to edit and correct it or add notes. All changes will be seen only by you. Learn more »
launch autoscroll
font size
0
reset
how to read this tab
guitar tuner
edit
Autoscroll
slow
fast
+/-
esc
set tempo
stop
e|-----------------------------------------------------------------|
B|-----------------------------------------------------------------|
G|-----------------------------------------------------------------|
D|-----------------------------------------------------------------|
A|-7-5-7-5-7-8--7-5-7-5-7-5--7-5-7-5-7-8--7-5-7-5-7-5--------------|
E|-7-5-7-5-7-8--7-5-7-5-7-5--7-5-7-5-7-8--7-5-7-5-7-5--------------|


e|-----------------------------------------------------------------|
B|-----------------------------------------------------------------|
G|-----------------------------------------------------------------|
D|-----------------------------------------------------------------|
A|-7-------------------5-7-----------------------------------------|
E|-7-------------------5-7-----------------------------------------|
    Por sentirte libre    te hechastes a volar


e|-----------------------------------------------------------------|
B|-----------------------------------------------------------------|
G|-----------------------------------------------------------------|
D|-----------------------------------------------------------------|
A|-5-7-----------------------5-7-----------------------------------|
E|-5-7-----------------------5-7-----------------------------------|
       Los que partir te ven     no saben si vendras


e|-----------------------------------------------------------------|
B|-----------------------------------------------------------------|
G|-----------------------------------------------------------------|
D|-9-5-7----9----------11-12-9----------7---9-------------9--------|
A|-7-3-5-7--7-----------9-10-7----------5-7-7---------7-5-7--------|
E|-------5----0-0-0-0----------0-0-0-0----5---0-0-0-0-5-3---0-0-0-0|
   En silencio se fue y no sabré por donde andara


e|-----------------------------------------------------------------|
B|-----------------------------------------------------------------|
G|-----------------------------------------------------------------|
D|------7---9---------11-12-9----------7---9-----------------------|
A|------5-7-7----------9-10-7----------5-7-7---------7-5-2---------|
E|--------5---0-0-0-0---------0-0-0-0----5---0-0-0-0-5-3-0---------|
   Escondido tal vez   estara tras su triste verdad


e|-----------------------------------------------------------------|
B|-----------------------------------------------------------------|
G|-----------------------------------------------------------------|
D|-9---7---9---7---9-10---9---7---9---7---9-7----------------------|
A|-7---5---7---5---7--8---7---5---7---5---7-5----------------------|
E|---0---0---0---0------0---0---0---0---0--------------------------|
   La tormenta su alas mojo


e|-----------------------------------------------------------------|
B|-----------------------------------------------------------------|
G|-----------------------------------------------------------------|
D|-9---7---9---7---9-10---9---7---9---7---9-7----------------------|
A|-7---5---7---5---7--8---7---5---7---5---7-5----------------------|
E|---0---0---0---0------0---0---0---0---0--------------------------|
   Cuando quizo llegar hasta el sol


e|-----------------------------------------------------------------|
B|-----------------------------------------------------------------|
G|-----------------------------------------------------------------|
D|-9---7---9---7---9-10---9---7---9---7---9-7----------------------|
A|-7---5---7---5---7--8---7---5---7---5---7-5----------------------|
E|---0---0---0---0------0---0---0---0---0--------------------------|
   Su destino se ennegrecio


e|-----------------------------------------------------------------|
B|-----------------------------------------------------------------|
G|-----------------------------------------------------------------|
D|-9---7---9---7---9-10---9---7---9---7---9-------2----------------|
A|-7---5---7---5---7--8---7---5---7---5---7-------2----------------|
E|---0---0---0---0------0---0---0---0---0----12/2-0----------------|
   Entre nubes de amargo sabor


e|-----------------------------------------------------------------|
B|-----------------------------------------------------------------|
G|-----------------------------------------------------------------|
D|-9-5-7----9----------11-12-9----------7---9-------------9--------|
A|-7-3-5-7--7-----------9-10-7----------5-7-7---------7-5-7--------|
E|-------5----0-0-0-0----------0-0-0-0----5---0-0-0-0-5-3---0-0-0-0|
   Refugiando su alma entre la vida y la eternidad


e|-----------------------------------------------------------------|
B|-----------------------------------------------------------------|
G|-----------------------------------------------------------------|
D|-7---9---------11-12-9--------------7-----9----------------------|
A|-5-7-7----------9-10-7--------------5---7-7-10---9--7--5--4-5----|
E|---5---0-0-0-0---------0-0-0-0----------5----8---7--5--3--2-3--0-|
   Hacia un horizonte el se fue sin saber regresar al mundo terrenal


e|-----------------------------------------------------------------|
B|-----------------------------------------------------------------|
G|-----------------------------------------------------------------|
D|-----5-5-------7-5h7h5--------------5------------7---------------|
A|---2-3-3-----5-5-------7h5-----2----3------5-5---5------7-7------|
E|-0-0-----3-3-3-------------0-0-0------------------------5-5------|
     Jamas se rindio             Intentando hallar la solucion


e|-----------------------------------------------------------------|
B|-----------------------------------------------------------------|
G|-----------------------------------------------------------------|
D|-------5-5-------7-5h7h5--------------------5-5---------7-----2--|
A|-----2-3-3-----5-5-------7h5-----2----------3-3-5-5-----5-7-7-2--|
E|-0-0-0-----3-3-3-------------0-0-0------------------------5-5-0--|
       Errada desicion             su alma en pena jamas descanso


e|-----------------------------------------------------------------|
B|-----------------------------------------------------------------|
G|-----------------------------------------------------------------|
D|-9-7-9--9-7-9--9-7-9-7-9-10-9------------------------------------|
A|-7-5-7--7-5-7--7-5-7-5-7--8-7------------------------------------|
E|-----------------------------------------------------------------|


(SOLO DEL TANO)

e|-----------------------------------------------------------------|
B|------------------------------------------------12-13-15---------|
G|-17b19-17b19-17b19r17-16-14v-12-------12-17v-14----------14v-----|
D|--------------------------------16-14----------------------------|
A|-----------------------------------------------------------------|
E|-----------------------------------------------------------------|


e|------------------------------------------------12-------12------|
B|------------------------15----------------15b17----15b17---------|
G|-12--------17b19-17b19v----17b19r17-16-14------------------------|
D|----16-14--------------------------------------------------------|
A|-----------------------------------------------------------------|
E|-----------------------------------------------------------------|


e|-------12-------12-15h14-17h15h14----15h14h----------------------|
B|-15b17----15b17-------------------17--------17h15----------------|
G|--------------------------------------------------17b19r17-------|
D|-----------------------------------------------------------------|
A|-----------------------------------------------------------------|
E|-----------------------------------------------------------------|


e|-----------------------------------------------------------------|
B|-------------15-------------------------------15b17r15-13-12-----|
G|-16h14h16h17----17h16h14---------------12/14v----------------14--|
D|-------------------------17h16h14v--14---------------------------|
A|-----------------------------------------------------------------|
E|-----------------------------------------------------------------|


e|-----------------------------------------------------------------|
B|------------------------------------------------15-15-15---------|
G|-12-14b16b14-12----------12---------------14b16-16-16-16---------|
D|----------------14-12-12----16-14v--14h16------------------------|
A|-----------------------------------------------------------------|
E|-----------------------------------------------------------------|


e|-------------------------12-14-15-14-14h12----15b17--------------|
B|------------15b17-15b17v-------------------14--------------------|
G|-14h12h14v-------------------------------------------------------|
D|-----------------------------------------------------------------|
A|-----------------------------------------------------------------|
E|-----------------------------------------------------------------|


Mal herido en su interior,
el mas corto camino tomo
como un sueño su suerte viajo,
pero de este jamas desperto.

Arrepentido esta,
tarde es ya nadie lo escuchara,
el volar por demas
te lleva a ser parte de aquellos que no vuelven mas

Jamas se rindio intentando hallar la solucion
errada decision su alma en pena jamas descanso

Jamas se rindio intentando hallar la solucion


e|-----------------------------------------------------------------|
B|-----------------------------------------------------------------|
G|-----------------------------------------------------------------|
D|-----5-5-----------7--2-5----------------------------------------|
A|---2-3-3-------5-5-5--2-3-5--------------------------------------|
E|-0-0-----3-3-3--------0---3--------------------------------------|
     Errada decision... tomo el

            
            
Suggest correction
Creating personal tab
Creating personal tab
You can edit any tab online and save it as your Personal.

You can edit, replace or remove any tab part or add personal notes – all changes will be seen only by you.

Personal tabs can be accessed anytime from any device, even offline.
Learn more »
Give kudos to tab author, rate the tab!
1 2 3 4 5
comments
print report bad tab
guest
Wanna post a correction for this tab? Suggest correction