Oops, an error
Loading. Please wait.

En Mis Venas tab

4 views 1 this week
no commentswrite comment
1 2 3 4 5
3 more votes to show rating
add to favorites
×
Save as Personal and add changes to this tab that will be seen only by you. Learn more ›
×
You can save this tab as Personal to edit and correct it or add notes. All changes will be seen only by you. Learn more »
launch autoscroll
font size
0
reset
how to read this tab
guitar tuner
edit
Autoscroll
slow
fast
+/-
esc
set tempo
stop
RIFF DE INICIO:
e|-----------------------------------------------------------------|
B|-----------------------------------------------------------------|
G|-----------------------------------------------------------------|
D|---------9---------10---------10---------7---------9-------------|
A|---------7---------7----------7----------7---------7---(*)-------|
E|-0-0-0-0---0-0-0-0----0-0-0-0----0-0-0-0---0-0-0-0---------------|


(*)= Arreglo del tano hace lo siguiente bien rapido y todo ligado:

e|--------------------|
B|--------------------|
G|--------------------|
D|--------------------|
A|--9h10h9--9h10h9h10-|
E|--------12----------|


e|-----------------------------------------------------------------|
B|-----------------------------------------------------------------|
G|-----------------------------------------------------------------|
D|---------9---------9----------9----------10--------10---------10-|
A|---------7---------7----------7----------7---------7----------7--|
E|-0-0-0-0---0-0-0-0----0-0-0-0----0-0-0-0---0-0-0-0----0-0-0-0----|
   Años sin comprender porque te fuiste ayer


e|-----------------------------------------------------------------|
B|-----------------------------------------------------------------|
G|-----------------------------------------------------------------|
D|---------7---------7----------7----------------------------------|
A|---------7---------7----------7-5-5-2----------------------------|
E|-0-0-0-0---0-0-0-0----0-0-0-0---3-3-0-2-3-2----------------------|
   Pero igual continue con tu escencia y saber


e|-----------------------------------------------------------------|
B|-----------------------------------------------------------------|
G|-----------------------------------------------------------------|
D|---------9---------9----------9----------10--------10---------10-|
A|---------7---------7----------7----------7---------7----------7--|
E|-0-0-0-0---0-0-0-0----0-0-0-0----0-0-0-0---0-0-0-0----0-0-0-0----|
   El tiempo decidio que hoy no estes aqui


e|-----------------------------------------------------------------|
B|-----------------------------------------------------------------|
G|-----------------------------------------------------------------|
D|---------7---------7---------------------------------------------|
A|---------7---------7------5-5-2----------------------------------|
E|-0-0-0-0---0-0-0-0---123-3-3-0-2-3-2----------------------------|
   Pero en mis venas se que estas dentro de mi


e|-----------------------------------------------------------------|
B|-----------------------------------------------------------------|
G|-----------------------------------------------------------------|
D|----9-7----------9-9/10-9-7--------------------------------------|
A|-/7-----10-7-9-7------------10-----------------------------------|
E|-----------------------------------------------------------------|
   Te demostrare que en tu camino estare


e|-----------------------------------------------------------------|
B|-----------------------------------------------------------------|
G|-----------------------------------------------------------------|
D|---------9---------10---------10---------7---------9---------9---|
A|---------7---------7----------7----------7---------7---------7---|
E|-0-0-0-0---0-0-0-0----0-0-0-0----0-0-0-0---0-0-0-0---0-0-0-0-----|


e|-----------------------------------------------------------------|
B|-----------------------------------------------------------------|
G|-----------------------------------------------------------------|
D|----9-7------------9-9/10-9-7------------------------------------|
A|-/7-----10-7-7/9-7------------10-7---7---7---7-9---9---9---9---9-|
E|---------------------------------5-5-5-5-5-5-5-7-7-7-7-7-7-7-7-7-|
   Siempre luchare para no defraudarte


Quien ve hasta su nariz nunca podra entender
que llevo en mi vivir la luz de tu gran ser
Noches conversando amaneci con vos
con tus consejos que hoy los repito yo

Te demostrare que en tu camino estare
Siempre luchare para no defraudarte


e|-----------------------------------------------------------------|
B|-----------------------------------------------------------------|
G|-----------------------------------------------------------------|
D|---------9-------------------------------------------------------|
A|-/7-9-10---10-9----9-10/12-10-9----------------------------------|
E|----------------/8-------------10--------------------------------|
   Me veras en pie resistiendome


e|-----------------------------------------------------------------|
B|-----------------------------------------------------------------|
G|-----------------------------------------------------------------|
D|------9-7-----------9/10-9v--------------------------------------|
A|----7-----10-9----9----------------------------------------------|
E|-/5------------/8------------------------------------------------|
   Viendome en tu orgullo se que alli estas bien


e|-----------------------------------------------------------------|
B|-----------------------------------------------------------------|
G|-----------------------------------------------------------------|
D|---------9-9/10-9-9/12-10-9-9h10-9-7-----------------------------|
A|-/7-9-10-----------------------------10-9------------------------|
E|-----------------------------------------------------------------|
   Me veras en pie resistiendome


e|-----------------------------------------------------------------|
B|-----------------------------------------------------------------|
G|-----------------------------------------------------------------|
D|------7/9-7-----------9/10-9-------------------------------------|
A|----7-------10-9----9--------------------------------------------|
E|-/5--------------/8----------------------------------------------|
   Viendome en tu orgullo se que alli tu estaras bien


(SOLO DEL TANO)

e|-----------------------------------------------------------------|
B|-----7-8-7h8h7---10b12-10-8-7-8-7h8h7----------------------------|
G|---9-----------9----------------------9-7h9h7----9-7h9h7----7----|
D|-9--------------------------------------------10---------10------|
A|-----------------------------------------------------------------|
E|-----------------------------------------------------------------|


e|-----------------------------------------------------------------|
B|-----------------------------------------------------------------|
G|-----------------------------------------------------------------|
D|-10-9-tr9-tr7----9-9-7----7--------------------------------------|
A|--------------10-------10---10-9-7-9-10-7-5-7--------------------|
E|-----------------------------------------------------------------|


e|-----------------------10----------------------------------------|
B|-----7-8-7h8h7---10b12----8-7-8-7---7----------------------------|
G|---9-----------9------------------9------------------------------|
D|-9---------------------------------------------------------------|
A|-----------------------------------------------------------------|
E|-----------------------------------------------------------------|


e|---------------------12h14h15h14h12------------------------------|
B|-15b17-15b17-15b17v-----------------15-12h13h15h13h12------------|
G|-----------------------------------------------------------------|
D|-----------------------------------------------------------------|
A|-----------------------------------------------------------------|
E|-----------------------------------------------------------------|


e|-----------------------------------------------------------------|
B|-----------------------------------------------------------------|
G|-12h14h12----14h12-----------------------------------------------|
D|----------14-------14-14h12----14h12-----------------------------|
A|----------------------------14-------14--------------------------|
E|-----------------------------------------------------------------|


RIFF DE INICIO X2

Años sin comprender porque te fuiste ayer
pero igual continue con tu escencia y saber
el tiempo decidio que hoy no estes aqui
pero en mis venas se que estas dentro de mi


En esta parte usa las mismas notas que antes, pero aca usa tremolo en
cada nota, unas 6 veces por nota mas o menos.
e|-----------------------------------------------------------------|
B|-----------------------------------------------------------------|
G|-----------------------------------------------------------------|
D|---9-7----------9-10-9-7-----------------------------------------|
A|-7-----10-7-9-7----------10--------------------------------------|
E|-----------------------------------------------------------------|
   Te demostrare que en tu camino estare


Siempre luchare para no defraudarte

Me veras en pie resistiendome
viendome en tu orgullo se que alli estas bien
Me veras en pie resistiendome
viendome en tu orgullo se que alli tu estaras bien...

FIN:

RIFF DE INICIO X3

e|-----------------------------------------------------------------|
B|-----------------------------------------------------------------|
G|-----------------------------------------------------------------|
D|---------9---------10---------10---------------------------------|
A|---------7---------7----------7----------------------------------|
E|-0-0-0-0---0-0-0-0----0-0-0-0------------------------------------|


e|-----------------------------------------------------------------|
B|-----------------------------------------------------------------|
G|-----------------------------------------------------------------|
D|-----2-----2-----2-----2----------2------------------------------|
A|-5-5-2-5-5-2-5-5-2-5-7-2------5-4-2------------------------------|
E|-3-3-0-3-3-0-3-3-0-3-5-0-12/3-3-2-0------------------------------|

            
            
Suggest correction
Creating personal tab
Creating personal tab
You can edit any tab online and save it as your Personal.

You can edit, replace or remove any tab part or add personal notes – all changes will be seen only by you.

Personal tabs can be accessed anytime from any device, even offline.
Learn more »
Give kudos to tab author, rate the tab!
1 2 3 4 5
comments
print report bad tab
guest
Wanna post a correction for this tab? Suggest correction