Oops, an error
Loading. Please wait.

Mi Insignia tab

version 2
version 2

Whole song

34 views 1 this week
no commentswrite comment
1 2 3 4 5
3 more votes to show rating
add to favorites
×
Save as Personal and add changes to this tab that will be seen only by you. Learn more ›
×
You can save this tab as Personal to edit and correct it or add notes. All changes will be seen only by you. Learn more »
launch autoscroll
font size
0
reset
how to read this tab
guitar tuner
edit
Autoscroll
slow
fast
+/-
esc
set tempo
stop
e|--------------------------------------------------------------|
B|--8---8-10-8-7---8-10-12-13-10-8---8-10-8-7-8-7h8h7---7v------|
G|----7----------9-----------------7------------------9---------|
D|--------------------------------------------------------------|
A|--------------------------------------------------------------|
E|--------------------------------------------------------------|


e|--------------------------------------------------------------|
B|--------------------------------------------------------------|
G|--------------------------------------------------------------|
D|-9---------7--------------------------------------------------|
A|-7-7-7-7-7-5-5-5-5-5-7---------10-9---------------------------|
E|---------------------5-5-5-5-5--8-7---------------------------|
    El   destino   eligio  esta  cancion


e|--------------------------------------------------------------|
B|--------------------------------------------------------------|
G|--------------------------------------------------------------|
D|-9---------7-------------------5-7----------------------------|
A|-7-7-7-7-7-5-5-5-5-5-7---------3-5----------------------------|
E|---------------------5-5-5-5-5--------------------------------|
    para    vivir   cantando  con vos


e|--------------------------------------------------------------|
B|--------------------------------------------------------------|
G|--------------------------------------------------------------|
D|-9---------7--------------------------------------------------|
A|-7-7-7-7-7-5-5-5-5-5-7---------10-9---------------------------|
E|---------------------5-5-5-5-5--8-7---------------------------|
    y   asi  llenarnos    el    corazon


e|--------------------------------------------------------------|
B|--------------------------------------------------------------|
G|--------------------------------------------------------------|
D|-9---------7-------------------5-7----------------------------|
A|-7-7-7-7-7-5-5-5-5-5-7---------3-5----------------------------|
E|---------------------5-5-5-5-5--------------------------------|
    con    orgullo  y  satis-----faccion


e|--------------------------------------------------------------|
B|--------------------------------------------------------------|
G|--------------------------------------------------------------|
D|-12---------9-------------12----------------------9-----------|
A|-10----12---7-----10------10-------12-------------7---------10|
E|-------10----------8---------------10------------------------8|
   Mi bandera veras flamear desde el norte hasta el sur mas austral


e|--------------------------------------------------------------|
B|--------------------------------------------------------------|
G|--------------------------------------------------------------|
D|-12---------9------------12------------------9----------------|
A|-10----12---7---------10-10-----12-----------7---------10-7---|
E|-------10--------------8--------10----------------------8-5---|
   Fue---rza  de la verdad   defendiendo  la union fraternal


Vuelvo a creer en la gente que es fiel
y demuestra en su accion la bondad
que su esfuerzo cambie su suerte
y sus sueños vean realizar

Mi bandera veras flamear
desde el norte hasta el sur mas austral
fuerza de la verdad
defendiendo la union fraternal


e|--------------------------------------------------------------|
B|--------------------------------------------------------------|
G|--------------------------------------------------------------|
D|------9---------7---------5-7-7-----9-9-----------------------|
A|--7-7-7-9-9-5-5-5-7-7-3-3-3-5-5-7-7-7-7-7h9h10h9h7h-----------|
E|--------7-7-------5-5------------------------------10---------|
                        UUUOOOOOOOOOOOOOOOOOOOOOOOOOOOO


e|--------------------------------------------------------------|
B|--------------------------------------------------------------|
G|--------------------------------------------------------------|
D|------9---------7---------5-7-7-----9-------------------------|
A|--7-7-7-9-9-5-5-5-7-7-3-3-3-5-5-7-7-7-7-7-7-7-7-7-------------|
E|--------7-7-------5-5-----------------------------------------|
        Mi insignia es resplandor en la oscuridad


e|--------------------------------------------------------------|
B|--8---8-10-8-7---8-10-12-13-10-8---8-10-8-7-8-7h8h7---7-------|
G|----7----------9-----------------7------------------9---------|
D|--------------------------------------------------------------|
A|--------------------------------------------------------------|
E|--------------------------------------------------------------|


(SOLO DEL TANO)

e|--------------------------------------------------------------|
B|--10b11-10b11-10b11-8---8h7---7-8-10-8h7-8h7------------------|
G|----------------------9-----9----------------9-7-9------------|
D|--------------------------------------------------------------|
A|--------------------------------------------------------------|
E|--------------------------------------------------------------|


e|--------------------------------------------------------------|
B|--------------------------------------------------------------|
G|--9-7----9-7----7---------------------------------------------|
D|------10-----10---10-9-7----9-7----7--------------------------|
A|-------------------------10-----10---10-9----7v---------------|
E|------------------------------------------10------------------|


e|-------------------------------------------12-14-15-14-12-----|
B|----------------7h8h7---7-10b11-8-10-15b17---------------15b17|
G|---------------9------9---------------------------------------|
D|----------7-9v------------------------------------------------|
A|7v-7-9-10-----------------------------------------------------|
E|--------------------------------------------------------------|


Repite estribillo y depues aumenta un tono el estribillo:
e|--------------------------------------------------------------|
B|--------------------------------------------------------------|
G|--------------------------------------------------------------|
D|-14--------11-------------14----------------------11----------|
A|-12----14---9-----12------12-------14-------------9---------12|
E|-------12---------10---------------12-----------------------10|
   Mi bandera veras flamear desde el norte hasta el sur mas austral


e|--------------------------------------------------------------|
B|--------------------------------------------------------------|
G|--------------------------------------------------------------|
D|-14--------11------------14-----------------11----14----------|
A|-12----14---9---------14-12-----14-----------9-12-12-14-11----|
E|-------12-------------10--------12-------------10----12-9-----|
   Fue---rza  de la verdad   defendiendo  la union fraternal
Suggest correction
Creating personal tab
Creating personal tab
You can edit any tab online and save it as your Personal.

You can edit, replace or remove any tab part or add personal notes – all changes will be seen only by you.

Personal tabs can be accessed anytime from any device, even offline.
Learn more »
Give kudos to tab author, rate the tab!
1 2 3 4 5
comments
print report bad tab
guest
Wanna post a correction for this tab? Suggest correction