Oops, an error
Loading. Please wait.

Nuestro Retrato Nacional tab

7 views 1 this week
no commentswrite comment
1 2 3 4 5
3 more votes to show rating
add to favorites
×
Save as Personal and add changes to this tab that will be seen only by you. Learn more ›
×
You can save this tab as Personal to edit and correct it or add notes. All changes will be seen only by you. Learn more »
launch autoscroll
font size
0
reset
how to read this tab
guitar tuner
edit
Autoscroll
slow
fast
+/-
esc
set tempo
stop
En las partes de los riff les puse aproximadamente la duración,
después fíjense la duración.

Intro 1:
1|----------------------------|
2|----------------------------|
3|----------------------------| x4
4|------9----7----9----10-10--|
5|------7----5----7----8---8--|
6|-0000--000--000--000--------|

Intro 2:
1|---------------------------------------------------------|
2|---------------------------------------------------------|
3|---------------------------------------------------------| x2
4|------9----7----9----10/11---------9----7----9-----10/9--|
5|------7----5----7----8/-9----------7----5----7-----8/-7--|
6|-0000--000--000--000----------0000--000--000--000--------|

Riff 1:
1|--------------------------------------------------------------
2|--------------------------------------------------------------
3|--------------------------------------------------------------
4|-9-------------------5----------------------------------------
5|-7-7-7-7-7-7-7-7-7-7-5-5-5-5-5-5-5-5-5-5-7--------------------
6|-----------------------------------------5-5-5-5-5-5-5-5-5-5--

1|---------------------------------|
2|---------------------------------|
3|---------------------------------| x2
4|---------------------------------|
5|--5-------------10----9----7-----|
6|--3-3-3-3-3-3-3--8----7----5-----|

Riff 2:
1|-----------------------------------------------------------
2|-----------------------------------------------------------
3|-----------------------------------------------------------
4|--------------------------7--------------------------------
5|-5---------------------7--5-5-5-5-5-5-5-5-5-5------10---9--
6|-3-3-3-3-3-3-3-3-3-3---5---------------------------8----7--

1|----------------------------------------------------------
2|----------------------------------------------------------
3|----------------------------------------------------------
4|---------------------9-----9------------------------------
5|-7----------------7--7--7--7--7--5---------------------7--
6|-5-5-5-5-5-5-5-5--5-----5-----5--3-3-3-3-3-3-3-3-3-3---5--

1|----------------------------------------------------|
2|----------------------------------------------------|
3|----------------------------------------------------|
4|-7--------------------------------------------------|
5|-5-5-5-5-5-5-5-5-5-5---5-----------10--9--7---------|
6|-----------------------3-3-3-3-3-3--8--7--5---------|


Riff 3:
1|-------------------------------------------------------------------
2|-------------------------------------------------------------------
3|-------------------------------------------------------------------
4|----------------------------------7--------------------------------
5|-10---------------9---------------5-5-5-5-5-5-5-5-7----------------
6|--8-8-8-8-8-8-8-8-7-7-7-7-7-7-7-7-----------------5-5-5-5-5-5-5-5--

1|-------------------------------------------------------------------
2|-------------------------------------------------------------------
3|-------------------------------------------------------------------
4|----------------------------------7--------------------------------
5|-10---------------9---------------5---------------7----------------
6|--8---------------7-------------------------------5----------------

1|---------------------------------------------------------|
2|---------------------------------------------------------|
3|---------------------------------------------------------|
4|---------------------------------------------------------|
5|-10----------10--9-----------9--7-------------------7----|
6|--8--8-8-8-8--8--7--7-7-7-7--7--5--5-5-5-5-5-5-5-5--5----|

Solo:
1|-----------------------------------------------------------------------
2|---12-10-9--------12--9--9-----------------------12^-10-12?-10---------
3|-9--------11--9-11-----11-11-9-11--9--11-12-11----------------12-11----
4|----------------------------------------------12-----------------------
5|-----------------------------------------------------------------------
6|-----------------------------------------------------------------------

1|-----------------------------------------------------------------------
2|---10-9--9--------------------12--10---------------------------
3|--9----11---11-12t-11-13--10-9------12-9-11t-9---------------------
4|----------------------------------------------12-10-9--9-------------
5|-----------------------------------------------------12---12-10-9--
6|-----------------------------------------------------------------------

1|-----------------| (donde dice ?t? significa que en esa nota hace
2|------------12^--|  tapping)
3|-----------------|
4|------9^-9^------|
5|-----------------|
6|-12-10-----------|

Final ( igual que el intro 2, pero termina así ):
1|-----------------------------------|
2|-----------------------------------|
3|-----------------------------------|
4|------9----7----9-----10-10/8---9--|
5|------7----5----7-----8--8/-6---7--|
6|-0000--000--000--000---------------|


Intro 1
Intro 2


Riff 1
El suburbio de un barrio provincial sumergido está,
donde vergüenza es dignidad y el sustento es un basural.

Riff 2
Quisiera que aquí estés y juntos poder cambiar
nuestro retrato nacional y esta cómplice impunidad.


Intro 2
Nos despiertan razones que nos hacen concientes.

Riff 1
Gobernantes cubren el sol con la voz de su falsedad,
ocultando en las sombras esta tóxica realidad.

Riff 2
La historia no es como crees en el reino del revés,
concientiza tu mente y podrás ver tu razón de ser.

Intro 2
Nos despiertan razones que nos hacen concientes.

Riff 3
Solo de bajo( MIERDA!!!!!, no lo se, por ahora... )
Solo
Riff 1

Riff1
Frías calles con niños bajo el desamparo social,
mientras la capital vive en la irrealidad de un mundo global.

Riff 2
Quisiera que aquí estés y juntos poder cambiar
nuestro retrato nacional y esta cómplice impunidad.

Final
Nos despiertan razones que nos hacen concientes.


Espero que les sirva, es todo lo que pude hacer.
Aguante hermética y el tano Romano!!!
Suggest correction
Creating personal tab
Creating personal tab
You can edit any tab online and save it as your Personal.

You can edit, replace or remove any tab part or add personal notes – all changes will be seen only by you.

Personal tabs can be accessed anytime from any device, even offline.
Learn more »
Give kudos to tab author, rate the tab!
1 2 3 4 5
comments
print report bad tab
guest
Wanna post a correction for this tab? Suggest correction