Oops, an error
Loading. Please wait.

Somos El Poder tab

version 1
version 1

Whole song

13 views 1 this week
no commentswrite comment
1 2 3 4 5
3 more votes to show rating
add to favorites
×
Save as Personal and add changes to this tab that will be seen only by you. Learn more ›
×
You can save this tab as Personal to edit and correct it or add notes. All changes will be seen only by you. Learn more »
launch autoscroll
font size
0
reset
how to read this tab
guitar tuner
edit
Autoscroll
slow
fast
+/-
esc
set tempo
stop
Somos el Poder ? Razones concientes .

Intro :

E|-------------------------------------------------|
B|-------------------------------------------------|
G|-------------------------------------------------|
D|------4-----2------5-----9-----------------------|
A|------2-----0------3-----7-----------------------|
E|-------------------------------------------------|
                   X3
E|----------------------------------|--------------|
B|----------------------------------|--------------|
G|----------------------------------|--------------|
D|------------4------2-----5------9-|--------------|
A|-----5------2------0-----3------7-|---------5----|
E|-0-0-3----------------------------|----0-0--3----|
   Pm?                                   Pm?
E|-------------------------------------------------|
B|-------------------------------------------------|
G|-------------------------------------------------|
D|-------------------------------------------------| x3
A|-------7-5------7-5------7-5--------5------------|
E|---0-0------0-0------0-0------0-5-6--------------|

E|-------------------------------------------------|
B|-------------------------------------------------|
G|-------------------------------------------------|
D|-------------------------------------------------|
A|-------7-5------7-5----5-7-8-9-------------------|
E|---0-0------0-0--------3-5-6-7-------------------|

E|-------------------------------------------------|
B|-------------------------------------------------|
G|-------------------------------------------------|
D|-------9/5------9/7------9/7---------------------| x3
A|-------7/5------7/5------7/5--------5------------|
E|---0-0------0-0------0-0------0-5-6--------------|

E|-------------------------------------------------|
B|-------------------------------------------------|
G|-------------------------------------------------|
D|-------9/5------9/7------------------------------|
A|-------7/5------7/5---5-7-8-9--------------------|
E|---0-0------0-0-------3-5-6-7--------------------|

Empieza a cantar el Turu :
E|----------------------------------------------------------|
B|----------------------------------------------------------|
G|----------------------------------------------------------|
D|----------------------------------------------------------|x2
A|--2----------------------2-----------------5-7-8-9--------|
E|--0-0-0-0-0-0-000-0-0-0--0-0-0-0-0-0-0-0---3-5-6-7--------|
     Pm??????????????   Pm?????????


E|----------------------------------------------------------|
B|----------------------------------------------------------|
G|-------------------------12-12----------------------------|
D|-------------------------12-12----------------------------|
A|--2--------------------------------------------5-7-8-9----|
E|--0-0-0-0-0-0-000-0-0-0--------0-0-0-0-0-0-0---3-5-6-7----|
     Pm??????????????       Pm?????????


E|----------------------------------------------------------|
B|----------------------------------------------------------|
G|----------------------------------------------------------|
D|----------------------------------------------------------|
A|--2----------------------2-----------------5-7-8-9--------|
E|--0-0-0-0-0-0-000-0-0-0--0-0-0-0-0-0-0-0---3-5-6-7--------|
      Pm?????????????????    Pm????????????

E|-------------------------------------------------|
B|-------------------------------------------------|
G|-------------------------------------------------|
D|-------------------5------------4---------4------| x2
A|--2-------5--------3--------222-2-----222-2------|
E|--0-------3--------------------------------------|

E|-------------------------------------------------------------|
B|-------------------------------------------------------------|
G|-------------------------------------------------------------|
D|-----------------------------5------5------4------4----------|
A|-----2-----2-----5-----5--3333---3333?--2222---2222----------|
E|--0000--0000--3333--3333-------------------------------------|
   Pm    Pm    Pm    Pm    Pm     Pm    Pm     Pm

E|-------------------------------------------------|
B|-------------------------------------------------|
G|-------------------------------------------------|
D|-------------------5------------4---------4------|
A|--2-------5--------3--------222-2-----222-2------|
E|--0-------3--------------------------------------|


E|-------------------------------------------------|
B|-------------------------------------------------|
G|-------------------------------------------------|
D|-------------------------------------------------| x3
A|-------7-5------7-5------7-5--------5------------|
E|---0-0------0-0------0-0------0-5-6--------------|

E|-------------------------------------------------|
B|-------------------------------------------------|
G|-------------------------------------------------|
D|-------------------------------------------------|
A|-------7-5------7-5----5-7-8-9-------------------|
E|---0-0------0-0--------3-5-6-7-------------------|


E|----------------------------------------------------------|
B|----------------------------------------------------------|
G|----------------------------------------------------------|
D|----------------------------------------------------------|x2
A|--2----------------------2-----------------5-7-8-9--------|
E|--0-0-0-0-0-0-000-0-0-0--0-0-0-0-0-0-0-0---3-5-6-7--------|
     Pm??????????????   Pm?????????


E|----------------------------------------------------------|
B|----------------------------------------------------------|
G|-------------------------12-12----------------------------|
D|-------------------------12-12----------------------------|
A|--2--------------------------------------------5-7-8-9----|
E|--0-0-0-0-0-0-000-0-0-0--------0-0-0-0-0-0-0---3-5-6-7----|
     Pm??????????????       Pm?????????


E|----------------------------------------------------------|
B|----------------------------------------------------------|
G|----------------------------------------------------------|
D|----------------------------------------------------------|
A|--2----------------------2-----------------5-7-8-9--------|
E|--0-0-0-0-0-0-000-0-0-0--0-0-0-0-0-0-0-0---3-5-6-7--------|
      Pm?????????????????    Pm????????????

E|-------------------------------------------------|
B|-------------------------------------------------|
G|-------------------------------------------------|
D|-------------------5------------4---------4------| x2
A|--2-------5--------3--------222-2-----222-2------|
E|--0-------3--------------------------------------|

E|-------------------------------------------------------------|
B|-------------------------------------------------------------|
G|-------------------------------------------------------------|
D|-----------------------------5------5------4------4----------|
A|-----2-----2-----5-----5--3333---3333?--2222---2222----------|
E|--0000--0000--3333--3333-------------------------------------|
   Pm    Pm    Pm    Pm    Pm     Pm    Pm     Pm

E|--------------------------------------------------------------|
B|--------------------------------------------------------------|
G|--------------------------------------------------------------|
D|-------------------5------------4---------4-------------------|
A|--2-------5--------3--------222-2-----222-2--2----22---22--22-|
E|--0-------3----------------------------------0----00---00--00-|

Estribillo :
Somos el poder , cuando no se cumple la ley

E|--------------------------------------------------------------|
B|--------------------------------------------------------------|
G|--------------------------------------------------------------|
D|--------------------------------------------------------------|
A|--2-------2-----2-2-2--5-------5-----5-5-5--------------------|
E|--0-0-0-0-0-0-0-0-0-0--3-3-3-3-3-3-3-3-3-3--------------------|

Somos el poder , y hace al pueblo  seguir de pie .

E|--------------------------------------------------------------|
B|--------------------------------------------------------------|
G|--------------------------------------------------------------|
D|--------------------------------------------------------------|
A|--2-------2-----2-2-2--7-------7-----5-5-5--------------------|
E|--0-0-0-0-0-0-0-0-0-0--5-5-5-5-5-5-5-3-3-3--------------------|

Somos el poder , cuando no se cumple la ley

E|--------------------------------------------------------------|
B|--------------------------------------------------------------|
G|--------------------------------------------------------------|
D|--------------------------------------------------------------|
A|--2-------2-----2-2-2--5-------5-----5-5-5--------------------|
E|--0-0-0-0-0-0-0-0-0-0--3-3-3-3-3-3-3-3-3-3--------------------|

Somos el poder , y hace al pueblo  seguir de pie .

E|--------------------------------------------------------------|
B|--------------------------------------------------------------|
G|--------------------------------------------------------------|
D|--------------------------------------------------------------|
A|--2-------2-----2-2-2--7-------7-----5-5-5--------------------|
E|--0-0-0-0-0-0-0-0-0-0--5-5-5-5-5-5-5-3-3-3--------------------|

1º SOLO ????

Después del 1º solo :
E|-------------------------------------------------------------|
B|-------------------------------------------------------------|
G|-------------------------------------------------------------|
D|-------4--------7---4-5-5------------------------------------|
A|--2----2--------5---2-3-3-------0-0-2-3-2-0------------------|
E|--0-----------------------------------------3----------------|

E|-------------------------------------------------------------|
B|-------------------------------------------------------------|
G|-------------------------------------------------------------|
D|-------4--------7---4-5-5---------7--------------------------|
A|--2----2--------5---2-3-3------5555------5-------------------|
E|--0-----------------------------------3333-------------------|

E|-------------------------------------------------------------|
B|-------------------------------------------------------------|
G|-------------------------------------------------------------|
D|-------4--------7---4-5-5------------------------------------|
A|--2----2--------5---2-3-3-------0-0-2-3-2-0------------------|
E|--0-----------------------------------------3----------------|

E|-------------------------------------------------------------|
B|-------------------------------------------------------------|
G|-------------------------------------------------------------|
D|-------4--------7---4-5-5---------7--------------------------|
A|--2----2--------5---2-3-3------5555------5-------------------|
E|--0-----------------------------------3333-------------------|

E|-------------------------------------------------|
B|-------------------------------------------------|
G|-------------------------------------------------|
D|-------------------------------------------------|
A|-------7-5------7-5------7-5--------5------------|
E|---0-0------0-0------0-0------0-5-6--------------|

E|-------------------------------------------------|
B|-------------------------------------------------|
G|-------------------------------------------------|
D|-------9/5------9/7------------------------------|
A|-------7/5------7/5---5-7-8-9--------------------|
E|---0-0------0-0-------3-5-6-7--------------------|


E|----------------------------------------------------------|
B|----------------------------------------------------------|
G|----------------------------------------------------------|
D|----------------------------------------------------------|x2
A|--2----------------------2-----------------5-7-8-9--------|
E|--0-0-0-0-0-0-000-0-0-0--0-0-0-0-0-0-0-0---3-5-6-7--------|
     Pm??????????????   Pm?????????


E|----------------------------------------------------------|
B|----------------------------------------------------------|
G|-------------------------12-12----------------------------|
D|-------------------------12-12----------------------------|
A|--2--------------------------------------------5-7-8-9----|
E|--0-0-0-0-0-0-000-0-0-0--------0-0-0-0-0-0-0---3-5-6-7----|
     Pm??????????????       Pm?????????


E|----------------------------------------------------------|
B|----------------------------------------------------------|
G|----------------------------------------------------------|
D|----------------------------------------------------------|
A|--2----------------------2-----------------5-7-8-9--------|
E|--0-0-0-0-0-0-000-0-0-0--0-0-0-0-0-0-0-0---3-5-6-7--------|
      Pm?????????????????    Pm????????????

E|-------------------------------------------------|
B|-------------------------------------------------|
G|-------------------------------------------------|
D|-------------------5------------4---------4------| x2
A|--2-------5--------3--------222-2-----222-2------|
E|--0-------3--------------------------------------|

E|-------------------------------------------------------------|
B|-------------------------------------------------------------|
G|-------------------------------------------------------------|
D|-----------------------------5------5------4------4----------|
A|-----2-----2-----5-----5--3333---3333?--2222---2222----------|
E|--0000--0000--3333--3333-------------------------------------|
   Pm    Pm    Pm    Pm    Pm     Pm    Pm     Pm

E|--------------------------------------------------------------|
B|--------------------------------------------------------------|
G|--------------------------------------------------------------|
D|-------------------5------------4---------4-------------------|
A|--2-------5--------3--------222-2-----222-2--22----22---------|
E|--0-------3----------------------------------00----00---------|

Estribillo :
Somos el poder , cuando no se cumple la ley
E|--------------------------------------------------------------|
B|--------------------------------------------------------------|
G|--------------------------------------------------------------|
D|--------------------------------------------------------------|
A|--2-------2-----2-2-2--5-------5-----5-5-5--------------------|
E|--0-0-0-0-0-0-0-0-0-0--3-3-3-3-3-3-3-3-3-3--------------------|

Somos el poder , Y hace al pueblo seguir de pie .

E|--------------------------------------------------------------|
B|--------------------------------------------------------------|
G|--------------------------------------------------------------|
D|--------------------------------------------------------------|
A|--2-------2-----2-2-2--7-------7-----5-5-5--------------------|
E|--0-0-0-0-0-0-0-0-0-0--5-5-5-5-5-5-5-3-3-3--------------------|


2º SOLO : empieza asi ??
E|--7----7---7----7-------7----7---7---7-----7----7---7---7-------|
B|----10---8---7------------10---8---7---------10---8---7---------|
G|------------------9-------------------9-------------------9-----|
D|----------------------------------------------------------------|
A|----------------------------------------------------------------|
E|----------------------------------------------------------------|


Después del 2º solo : ( disculpen por no haberlo sacado todo(el solo))


E|-------------------------------------------------------------|
B|-------------------------------------------------------------|
G|-------------------------------------------------------------|
D|-------4--------7---4-5-5------------------------------------|
A|--2----2--------5---2-3-3-------0-0-2-3-2-0------------------|
E|--0-----------------------------------------3----------------|

E|-------------------------------------------------------------|
B|-------------------------------------------------------------|
G|-------------------------------------------------------------|
D|-------4--------7---4-5-5---------7--------------------------|
A|--2----2--------5---2-3-3------5555------5-------------------|
E|--0-----------------------------------3333-------------------|

E|-------------------------------------------------------------|
B|-------------------------------------------------------------|
G|-------------------------------------------------------------|
D|-------4--------7---4-5-5------------------------------------|
A|--2----2--------5---2-3-3-------0-0-2-3-2-0------------------|
E|--0-----------------------------------------3----------------|

E|-------------------------------------------------------------|
B|-------------------------------------------------------------|
G|-------------------------------------------------------------|
D|-------4--------7---4-5-5---------7--------------------------|
A|--2----2--------5---2-3-3------5555------5-------------------|
E|--0-----------------------------------3333-------------------|

E|-------------------------------------------------|
B|-------------------------------------------------|
G|-------------------------------------------------|
D|-------------------------------------------------| x3
A|-------7-5------7-5------7-5--------5------------|
E|---0-0------0-0------0-0------0-5-6--------------|


E|-------------------------------------------------|
B|-------------------------------------------------|
G|-------------------------------------------------|
D|-------9/5------9/7------------------------------|
A|-------7/5------7/5---5-7-8-9--------------------|
E|---0-0------0-0-------3-5-6-7--------------------|

Fin .


Un saludo a Nahu,her,alex,y al gordo cris (mi brother)y a sergio , capo!
Loko aguante razones ..se sarpa el tano loko.
un saludo a todos! aguante el metal argentoo.
vamos che hay que llenar el lugar de razones
hay pokitas canciones en tabs ..:S
El 12 18 y 19 del 4 tocan ... Un saludo!!


Greko

Mail : Nikito_systemofadown@


V8 , hermetica :D

            
            
Suggest correction
Creating personal tab
Creating personal tab
You can edit any tab online and save it as your Personal.

You can edit, replace or remove any tab part or add personal notes – all changes will be seen only by you.

Personal tabs can be accessed anytime from any device, even offline.
Learn more »
Give kudos to tab author, rate the tab!
1 2 3 4 5
comments
print report bad tab
guest
Wanna post a correction for this tab? Suggest correction