Oops, an error
Loading. Please wait.

Somos El Poder tab

version 2
version 2

Whole song

5 views 1 this week
no commentswrite comment
1 2 3 4 5
3 more votes to show rating
add to favorites
×
Save as Personal and add changes to this tab that will be seen only by you. Learn more ›
×
You can save this tab as Personal to edit and correct it or add notes. All changes will be seen only by you. Learn more »
launch autoscroll
font size
0
reset
how to read this tab
guitar tuner
edit
Autoscroll
slow
fast
+/-
esc
set tempo
stop
Bueno dejo esta version de "somos el poder" ya que la version
que hay no me convence. Ademas esta version tiene los solos
de guitarra, que la otra no tiene. Bueno espero que les sirva


e|-----------------------------------------------------------------|
B|-----------------------------------------------------------------|
G|-----------------------9-----------------------------------------|X4
D|-----------------------9-----------------------------------------|
A|----9-----7-----10-----7--------5--------------------------------|
E|-0--7--0--5--0---8--0-----0--0--3--------------------------------|


e|-----------------------------------------------------------------|
B|-----------------------------------------------------------------|
G|-----------------------------------------------------------------|
D|-----------------------------------------------------------------|
A|--------7-p-5--------7-p-5--------7-p-5-----------5--------------|
E|--0--0---------0--0---------0--0---------0--5--6-----------------|


e|-----------------------------------------------------------------|
B|-----------------------------------------------------------------|
G|-----------------------------------------------------------------|
D|-----------------------------------------------------------------|
A|--------7-p-5--------7-p-5--------7-p-5-----------5--------------|
E|--0--0---------0--0---------0--0---------0--5--6-----------------|


e|-----------------------------------------------------------------|
B|-----------------------------------------------------------------|
G|-----------------------------------------------------------------|
D|-----------------------------------------------------------------|
A|--------7-p-5--------7-p-5--------7-p-5-----------5--------------|
E|--0--0---------0--0---------0--0---------0--5--6-----------------|


e|-----------------------------------------------------------------|
B|-----------------------------------------------------------------|
G|-----------------------------------------------------------------|
D|-----------------------------------------------------------------|
A|--------7-p-5--------7-p-5-----5--7--8--9------------------------|
E|--0--0---------0--0---------0--3--5--6--7------------------------|


e|-----------------------------------------------------------------|
B|-----------------------------------------------------------------|
G|-----------------------------------------------------------------|
D|--------9/7-----------9/7----------9/7---------------------------|
A|--------7/5---------- 7/5----------7/5-----------5---------------|
E|--0--0---------0--0---------0--0---------0--5--6-----------------|


e|-----------------------------------------------------------------|
B|-----------------------------------------------------------------|
G|-----------------------------------------------------------------|
D|--------9/7-----------9/7----------9/7---------------------------|
A|--------7/5---------- 7/5----------7/5-----------5---------------|
E|--0--0---------0--0---------0--0---------0--5--6-----------------|


e|-----------------------------------------------------------------|
B|-----------------------------------------------------------------|
G|-----------------------------------------------------------------|
D|--------9/7-----------9/7----------9/7---------------------------|
A|--------7/5---------- 7/5----------7/5-----------5---------------|
E|--0--0---------0--0---------0--0---------0--5--6-----------------|


e|-----------------------------------------------------------------|
B|-----------------------------------------------------------------|
G|-----------------------------------------------------------------|
D|---------9/7----------9/7----------------------------------------|
A|---------7/5----------7/5-----5--7--8--9-------------------------|
E|--0--0---------0--0--------0--3--5--6--7-------------------------|


e|-----------------------------------------------------------------|
B|-----------------------------------------------------------------|
G|-----------------------------------------------------------------|
D|-----------------------------------------------------------------|
A|-2------------------------------2------------------5--7--8--9----|
E|-0-0-0-0-0-0-0-00---0-0-0-0-0-0-0---0-0-0-0-0-0-0--3--5--6--7----|
   Después de naufragar sumido en somnolencia


e|-----------------------------------------------------------------|
B|-----------------------------------------------------------------|
G|-----------------------------------------------------------------|
D|-----------------------------------------------------------------|
A|-2------------------------------2------------------5--7--8--9----|
E|-0-0-0-0-0-0-0-00---0-0-0-0-0-0-0---0-0-0-0-0-0-0--3--5--6--7----|
   Vencí la indignación


e|-----------------------------------------------------------------|
B|--------------------------------8--8-----------------------------|
G|--------------------------------7--7-----------------------------|
D|--------------------------------5--5-----------------------------|
A|-2--------------------------------------------------5--7--8--9---|
E|-0-0-0-0-0-0-0-00---0-0-0-0-0-0------0-0-0-0-0-0-0--3--5--6--7---|
   Creí ver tierra en sindicatos sin propuestas


e|-----------------------------------------------------------------|
B|-----------------------------------------------------------------|
G|-----------------------------------------------------------------|
D|-----------------------------------------------------------------|
A|-2------------------------------2------------------5--7--8--9----|
E|-0-0-0-0-0-0-0-00---0-0-0-0-0-0-0---0-0-0-0-0-0-0--3--5--6--7----|
   Que hundieron mi ilusión


e|-----------------------------------------------------------------|
B|-----------------------------------------------------------------|
G|-----------------------------------------------------------------|
D|-2-------------2-------------4---------4-------------------------|
A|-2------2------3-------2-2-2-2---2-2-2-2-------------------------|
E|-0------3--------------------------------------------------------|
   Hermanado estoy


e|-----------------------------------------------------------------|
B|-----------------------------------------------------------------|
G|-----------------------------------------------------------------|
D|-2-------------2-------------4---------4-------------------------|
A|-2------2------3-------2-2-2-2---2-2-2-2-------------------------|
E|-0------3--------------------------------------------------------|
   Con quien su puño alzo


e|-----------------------------------------------------------------|
B|-----------------------------------------------------------------|
G|-----------------------------------------------------------------|
D|---------------------------------------2-------2--------4-------4|
A|------2-------2--------2-------2-3-3-3-3-3-3-3-3--2-2-2-2-2-2-2-2|
E|0-0-0-0-0-0-0-0--3-3-3-3-3-3-3-3---------------------------------|
   Al frente voy con vos


e|-----------------------------------------------------------------|
B|-----------------------------------------------------------------|
G|-----------------------------------------------------------------|
D|-2-------------2-------------4---------4-------------------------|
A|-2------2------3-------2-2-2-2---2-2-2-2-------------------------|
E|-0------3--------------------------------------------------------|
   Contra su miserable traición


Suntuosos palcos rodeados de corderos
Entregando su honor
En su avaricia va dejarlos pastoreando
Tras la consagración

Hermanado estoy con quien su puño alzo
Al frente voy con vos contra su miserable traición


e|-----------------------------------------------------------------|
B|-----------------------------------------------------------------|
G|-----------------------------------------------------------------|
D|-2--------2--2-------2--2-------2--2-----------------------------|
A|-2--------2--2-------2--2-------2--2-----------------------------|
E|-0--------0--0-------0--0-------0--0-----------------------------|


e|-----------------------------------------------------------------|
B|-----------------------------------------------------------------|
G|-----------------------------------------------------------------|
D|-----------------------------------------------------------------|
A|-2-------2-----2---2-----2---2----2-------2-----2---2-------2---2|
E|-0-0-0-0-0-0-0-0-0-0-0-0-0-0-0-0--3-3-3-3-3-3-3-3-3-3-3-3-3---3--|
   Somos el poder cuando no se cumple la ley


e|-----------------------------------------------------------------|
B|-----------------------------------------------------------------|
G|-----------------------------------------------------------------|
D|-----------------------------------------------------------------|
A|-2-------2-----2---2-----2---2----7-------7-----7-----2-----2---2|
E|-0-0-0-0-0-0-0-0-0-0-0-0-0-0-0-0--5-5-5-5-5-5-5-5-5---3-3-3---3--|
   Somos el poder que hace al pueblo seguir de pie


e|-----------------------------------------------------------------|
B|-----------------------------------------------------------------|
G|-----------------------------------------------------------------|
D|-----------------------------------------------------------------|
A|-2-------2-----2---2-----2---2----2-------2-----2---2-------2---2|
E|-0-0-0-0-0-0-0-0-0-0-0-0-0-0-0-0--3-3-3-3-3-3-3-3-3-3-3-3-3---3--|
   Somos el poder cuando no se cumple la ley


e|-----------------------------------------------------------------|
B|-----------------------------------------------------------------|
G|-----------------------------------------------------------------|
D|-----------------------------------------------------------------|
A|-2-------2-----2---2-----2---2----7-------7-----7-----2-----2----|
E|-0-0-0-0-0-0-0-0-0-0-0-0-0-0-0-0--5-5-5-5-5-5-5-5-5---3-3-3-3----|
   Somos el poder que hace al pueblo seguir de pie


(1º SOLO DEL TANO)
e|-----------------------------------------------------------------|
B|---------------------------------------------------7--8--7h8p7---|
G|---------------------------------------------7--9---------------9|
D|---------------------------------------7--9----------------------|
A|-5/7-7-----5/7-7---7--9--10--7--9--10----------------------------|
E|-------0-0-------------------------------------------------------|


e|-----------------------------------------------------------------|
B|-7--8--10--8--7-----8--7-----7-----------------------------------|
G|-----------------9--------9-----9--8--7-----7--------------------|
D|-----------------------------------------9-----9--8--7-----8--7--|
A|--------------------------------------------------------9--------|
E|-----------------------------------------------------------------|

e|-----------------------------------------------------------------|
B|-----------------------------------------------------------------|
G|----------------------------------------7--9--9~------7--9--9~---|
D|----7-----------------------------7--9------------9--------------|
A|-9-----9--8--7-----------7--8--9---------------------------------|
E|----------------7--8--9------------------------------------------|


e|-----------------------------------------------------------------|
B|-------------------------------10------10--12b14-----------------|
G|-----9--11--9--11--12--11--12------12----------------------------|
D|-12--------------------------------------------------------------|
A|-----------------------------------------------------------------|
E|-----------------------------------------------------------------|


e|-----------------------------------------------------------------|
B|-10--8--7-----8--------------------------------------------------|
G|-----------9-----9--8--7-----8--7-----7--------------------------|
D|--------------------------9--------9-----9--8--7------------7----|
A|--------------------------------------------------7--9--10-------|
E|-----------------------------------------------------------------|


e|-----------------------------------------------------------------|
B|--------------------------8--------------------------------------|
G|--------------7-----7--9-----9~----------------------------------|
D|-----7--8--9-----9-----------------------------------------------|
A|--9--------------------------------------------------------------|
E|-----------------------------------------------------------------|


e|-----------------------------------------------------------------|
B|-----------------------------------------------------------------|
G|-----------------------------------------------------------------|
D|----4--------7--5--4--5--5---------------------------------------|
A|-2--2--------5--3--2--3--3------2--3--2--------------------------|
E|-0-----0--0-----------------5------------5--3--2-----------------|
   En vos debes saber


e|-----------------------------------------------------------------|
B|-----------------------------------------------------------------|
G|-----------------------------------------------------------------|
D|----4-----------5--4--5--5--------7------------------------------|
A|-2--2--------5--3--2--3--3--5-5-5-5--------7---------------------|
E|-0-----0--0--------------------------5-5-5-5---------------------|
   que también de ti depende


e|-----------------------------------------------------------------|
B|-----------------------------------------------------------------|
G|-----------------------------------------------------------------|
D|----4--------7--5--4--5--5---------------------------------------|
A|-2--2--------5--3--2--3--3------2--3--2--------------------------|
E|-0-----0--0-----------------5------------5--3--2-----------------|
   Que esta gran sociedad


e|-----------------------------------------------------------------|
B|-----------------------------------------------------------------|
G|-----------------------------------------------------------------|
D|----4-----------5--4--5--5--------7------------------------------|
A|-2--2--------5--3--2--3--3--5-5-5-5--------7---------------------|
E|-0-----0--0--------------------------5-5-5-5---------------------|
   no sucumba en la falsedad


e|-----------------------------------------------------------------|
B|-----------------------------------------------------------------|
G|-----------------------------------------------------------------|
D|-----------------------------------------------------------------|
A|--------7-p-5--------7-p-5--------7-p-5-----------5--------------|
E|--0--0---------0--0---------0--0---------0--5--6-----------------|


e|-----------------------------------------------------------------|
B|-----------------------------------------------------------------|
G|-----------------------------------------------------------------|
D|-----------------------------------------------------------------|
A|--------7-p-5--------7-p-5-----5--7--8--9------------------------|
E|--0--0---------0--0---------0--3--5--6--7------------------------|


Después de naufragar sumido en somnolencia
Vencí la indignación
Creí ver tierra en sindicatos sin propuestas
Que hundieron mi ilusión

Hermanado estoy con quien su puño alzo
Al frente voy con vos contra su miserable traición

Somos el poder cuando no se cumple la ley
Somos el poder que hace al pueblo seguir de pie


 (2º SOLO DEL TANO)
e|-----------------------------------------------------------------|
B|12p10-12p8-12p7-------12p10-12p8-12p7--------12p10-12p8-12p7-----|
G|----------------12p9-------------------12p9------------------12p9|
D|-----------------------------------------------------------------|
A|-----------------------------------------------------------------|
E|-----------------------------------------------------------------|
  (toda esta parte con tapping)


e|-10--8--7------8--7------7---------------------------------------|
B|-----------10--------10-----10--8--7-----8--7--------------------|
G|--------------------------------------9--------9--7--------------|
D|-----------------------------------------------------------------|
A|-----------------------------------------------------------------|
E|-----------------------------------------------------------------|


e|--7------7------7------7-----------------------------------------|
B|-10b12--10b12--10b12--10b12--10p8--------------------------------|
G|----------------------------------9-------------------------7--9-|
D|---------------------------------------------------9--7--9-------|
A|--------------------------------------5--7--9--10----------------|
E|-----------------------------------------------------------------|


e|-----------------------------------------------------------------|
B|-8--7h8--7--7----------------------------------------------------|
G|---------------9---15b17--15b17--15b17--15b17~-------------------|
D|-----------------------------------------------------------------|
A|-----------------------------------------------------------------|
E|-----------------------------------------------------------------|


e|--8--7------7----------------------------------------------------|
B|--------10-----10--8--7-----8------------------------------------|
G|-------------------------9-----9--8--7-----8--7------------------|
D|----------------------------------------9--------9---------------|
A|----------------------------------------------------5/7--7-------|
E|-----------------------------------------------------------------|


e|----------------------------7------------8--7--------------------|
B|---------------10--8--7--------10--8--7--------10--8--7----------|
G|-----7-----9~------------9-------------------------------9-------|
D|-/9-----9--------------------------------------------------------|
A|-----------------------------------------------------------------|
E|-----------------------------------------------------------------|


e|--------12---------12--15b17--15--14--12-------------------------|
B|-15b17------15b17-------------------------15b17------------------|
G|-----------------------------------------------------------------|
D|-----------------------------------------------------------------|
A|-----------------------------------------------------------------|
E|-----------------------------------------------------------------|


e|-----------------------------------------------------------------|
B|--15br--13--12------12-------------------------------------------|
G|----------------14------14--12--11--------------12---------------|
D|----------------------------------------12--14------14-----------|
A|------------------------------------14---------------------------|
E|-----------------------------------------------------------------|


En vos debes saber que también de ti depende
Que esta gran sociedad no sucumba en la falsedad


e|-----------------------------------------------------------------|
B|-----------------------------------------------------------------|
G|-----------------------------------------------------------------|
D|-----------------------------------------------------------------|
A|--------7-p-5--------7-p-5--------7-p-5-----------5--------------|
E|--0--0---------0--0---------0--0---------0--5--6-----------------|


e|-----------------------------------------------------------------|
B|-----------------------------------------------------------------|
G|-----------------------------------------------------------------|
D|-----------------------------------------------------------------|
A|--------7-p-5--------7-p-5--------7-p-5-----------5--------------|
E|--0--0---------0--0---------0--0---------0--5--6-----------------|


e|-----------------------------------------------------------------|
B|-----------------------------------------------------------------|
G|-----------------------------------------------------------------|
D|--------9/7-----------9/7----------9/7---------------------------|
A|--------7/5---------- 7/5----------7/5-----------5---------------|
E|--0--0---------0--0---------0--0---------0--5--6-----------------|


e|-----------------------------------------------------------------|
B|-----------------------------------------------------------------|
G|-----------------------------------------------------------------|
D|---------9/7----------9/7-----------------2----------------------|
A|---------7/5----------7/5-----5--7--8--9--2----------------------|
E|--0--0---------0--0--------0--3--5--6--7--0----------------------|
Suggest correction
Creating personal tab
Creating personal tab
You can edit any tab online and save it as your Personal.

You can edit, replace or remove any tab part or add personal notes – all changes will be seen only by you.

Personal tabs can be accessed anytime from any device, even offline.
Learn more »
Give kudos to tab author, rate the tab!
1 2 3 4 5
comments
print report bad tab
guest
Wanna post a correction for this tab? Suggest correction