Oops, an error
Loading. Please wait.

Aurora tab

20 views 1 this week
no commentswrite comment
1 2 3 4 5
3 more votes to show rating
add to favorites
×
Save as Personal and add changes to this tab that will be seen only by you. Learn more ›
×
You can save this tab as Personal to edit and correct it or add notes. All changes will be seen only by you. Learn more »
launch autoscroll
font size
0
reset
how to read this tab
guitar tuner
edit
Autoscroll
slow
fast
+/-
esc
set tempo
stop
Este es el intro y el solo de esta rola, la verdad
es que los dos estan muy faciles. Para el intro te
puse unos numeros debajo de cada nota, estos numeros
indican cuantas veces tocar la nota...

Intro.

e||----------------------------||
B||-3--2--0--2-/-5-/-7-/-8-/-10||
G||----------------------------||
D||----------------------------||
A||----------------------------||
E||----------------------------||
    3  5  3  5   3   5   3    5


e||--------------------------------------||
B||-/15--14--12-/-14-/-17-/-19-/-20-/-22-||
G||--------------------------------------||
D||--------------------------------------||
A||--------------------------------------||
E||--------------------------------------||
      3   5   3    5    3   5    3    5


Solo.

e||--------------6-5-0-------3/5-3--5-3-5/10-5-3-3-||
B||-5b-4h5--------------3-4------------------------||
G||---------2--------------------------------------||
D||------------------------------------------------||
A||------------------------------------------------||
E||------------------------------------------------||

e||-5h6p3-3/5-5h6-5----7-----10--10-9------7-6-----||
B||------------------8---8-7----------11-7-----7-5-||
G||------------------------------------------------||
D||------------------------------------------------||
A||------------------------------------------------||
E||------------------------------------------------||


Bueno eso es todo, luego les paso el resto de la rola
y otras canciones de Razones...

            
            
Suggest correction
Creating personal tab
Creating personal tab
You can edit any tab online and save it as your Personal.

You can edit, replace or remove any tab part or add personal notes – all changes will be seen only by you.

Personal tabs can be accessed anytime from any device, even offline.
Learn more »
Give kudos to tab author, rate the tab!
1 2 3 4 5
comments
print report bad tab
guest
Wanna post a correction for this tab? Suggest correction