Oops, an error
Loading. Please wait.

The World Keeps Turning Bass Tab

16 views 1 this week
no commentswrite comment
1 2 3 4 5
3 more votes to show rating
add to favorites
launch autoscroll
font size
0
reset
guitar tuner
Autoscroll
slow
fast
+/-
esc
set tempo
stop
Help us to improve Ultimate-Guitar.com Take our survey!
×
Author
Difficulty
novice
[Intro]
G|---------------|--------------|
D|---------------|--------------|
A|--5---5--5-5---|-5---5--5-5-7-|
E|-------------5-|--------------|

[Verse 1]
G|--------------|--------------|----------4---|--------------|
D|-5---5--5---5-|-7---7--7-5---|-4---4--7---7-|-5---5--5-5---|
A|----------7---|------------7-|--------------|------------5-|
E|--------------|--------------|--------------|--------------|

G|--------------|--------------|----------4---|--------------|
D|--------------|--------------|-4---4--7---7-|-5---5--5-5---|
A|-5---5------5-|-7---7----5-7-|--------------|------------5-|
E|--------5-7---|--------7-----|--------------|--------------|

G|--------------|--------------|----------4---|--------------|
D|-5---5--5---5-|-7---7--7-5---|-4---4--7---7-|-5---5--5-5---|
A|----------7---|------------7-|--------------|------------5-|
E|--------------|--------------|--------------|--------------|

G|-------------|--------------|--------------|---------------|--------------|
D|-------------|--------------|--5---5--7-5--|---------------|--------------|
A|-5---5----5--|--7---7--5-7--|--------------|--5---5--5-5---|-5---5--5-5-7-|
E|--------7----|--------------|--------------|-------------5-|--------------|

[Verse 2]
G|--------------|--------------|----------4---|--------------|
D|-5---5--5---5-|-7---7--7-5---|-4---4--7---7-|-5---5--5-5---|
A|----------7---|------------7-|--------------|------------5-|
E|--------------|--------------|--------------|--------------|

G|--------------|--------------|----------4---|--------------|
D|--------------|--------------|-4---4--7---7-|-5---5--5-5---|
A|-5---5------5-|-7---7----5-7-|--------------|------------5-|
E|--------5-7---|--------7-----|--------------|--------------|

G|--------------|--------------|----------4---|--------------|
D|-5---5--5---5-|-7---7--7-5---|-4---4--7---7-|-5---5--5-5---|
A|----------7---|------------7-|--------------|------------5-|
E|--------------|--------------|--------------|--------------|

G|-------------|--------------|--------------|---------------|--------------|
D|-------------|--------------|--5---5--7-5--|---------------|--------------|
A|-5---5----5--|--7---7--5-7--|--------------|--5---5--5-5---|-5---5--5-5---|
E|--------7----|--------------|--------------|-------------5-|------------5-|

[Instrumental]
G|--------------|--------------|--------------|--------------|
D|--------------|--------------|--------------|-5---5--5-5---|
A|-5---5--5-5---|-7---7--7-7---|-5---5--5-5-7-|------------7-|
E|------------5-|------------5-|--------------|--------------|

G|--------------|--------------|-------------|----------------|
D|--------------|--------------|-5---5--7-5--|--4-------------|
A|-5---5--5-5---|-7---7--7-7-5-|-------------|------5---------|
E|------------5-|--------------|-------------|----------------|

G|--------------|--------------|--------------|--------------|
D|--------------|--------------|--------------|-5---5--5-5---|
A|-5---5--5-5---|-7---7--7-7---|-5---5--5-5-7-|------------7-|
E|------------5-|------------5-|--------------|--------------|

G|--------------|--------------|-------------|---------------|--------------|
D|--------------|--------------|-5---5--7-5--|---------------|--------------|
A|-5---5--5-5---|-7---7--7-7-5-|-------------|--5---5--5-5---|-5---5--5-5-7-|
E|------------5-|--------------|-------------|-------------5-|--------------|

[Verse 3]
G|--------------|--------------|----------4---|--------------|
D|-5---5--5---5-|-7---7--7-5---|-4---4--7---7-|-5---5--5-5---|
A|----------7---|------------7-|--------------|------------5-|
E|--------------|--------------|--------------|--------------|

G|--------------|--------------|----------4---|--------------|
D|--------------|--------------|-4---4--7---7-|-5---5--5-5---|
A|-5---5------5-|-7---7----5-7-|--------------|------------5-|
E|--------5-7---|--------7-----|--------------|--------------|

G|--------------|--------------|----------4---|--------------|
D|-5---5--5---5-|-7---7--7-5---|-4---4--7---7-|-5---5--5-5---|
A|----------7---|------------7-|--------------|------------5-|
E|--------------|--------------|--------------|--------------|

G|-------------|--------------|--------------|---------------|
D|-------------|--------------|--5---5--7-5--|---------------|
A|-5---5----5--|--7---7--5-7--|--------------|--5---5--5-5---|
E|--------7----|--------------|--------------|-------------5-|

[Outro]
G|-------------|--------------|--------------|--------------|
D|-------------|--------------|--5---5--7-5--|--------------|
A|-5---5----5--|--7---7--5-7--|--------------|--5-----------|
E|--------7----|--------------|--------------|--------------|
Suggest correction
Give kudos to tab author, rate the tab!
1 2 3 4 5
comments
print report bad tab
guest
You may want to rate the tab now too:
select rating
Wanna post a correction for this tab? Suggest correction