Oops, an error
Loading. Please wait.

Before I Fall To Pieces Bass Tab

version 1
version 1

Whole song

Interactive

7,778 views 9 this week
3 commentsread comments
1 2 3 4 5
accurate
x 6
add to favorites
launch autoscroll
font size
0
reset
guitar tuner
Tab Pro tools
  • play this tab
  • loop segment
  • change instrument
  • show fretboard
  • metronome
×
Best way to learn
"Before I Fall To Pieces"
Autoscroll
slow
fast
+/-
esc
set tempo
stop
Contributor
Difficulty
novice
------
Before I Fall to Pieces Bass Tab
Bassist: Carl Dalemo
Tabbed by: J >_<

This is my first tab, be merciful...
------


Intro:
g|---------------------|
d|0---0-4-5---7-9-7----|
a|---------------------|
e|---------------------| (3x like this but when drums kick in, make it a bit busier.

Verses:
g|--------------------------------|---------------------------------|---------------------------------|
d|--------------------------------|--------5-5-555-7-7-777-7h9-7----|---------------------------------|
a|5-5-555-------------------------|5-5-555-----------------------9--|-5-5-555-------------------------|
e|--------3-3-333-5-5-555-5-5-555-|---------------------------------|---------3-3-333-5-5-555-5-5-555-|
  (x2)                              (x1)                                (x1)

g|--------------------------------|
d|--------------------------------|
a|5-5-555-7-7-777-----------------|
e|----------------5-5-555-5-5-555-|
   (x2)

Chorus:
g|--------------------------------|
d|--------5-5-555-7-7-777-7h9-7---|
a|5-5-555-----------------------9-|
e|--------------------------------| (just repeat it)

Interlude:
g|--------------------|--------------------------------|-------------|
d|2-4-2------2-4-2----|--------------------------------|-------------|
a|------0-0--------2--|2-2-2-2-0-0-0-0-5-5-5-5---------|--2-----5----|
e|--------------------|------------------------3-3-3-3-|-----3-----5-|(hold)
   (x2)

The little bit before the 2nd chorus just after interlude has finished:
g|----0-2-4-2-----|
d|--2-------------|
a|0---------------|
e|----------------|
  (x2)

Erm... that's it (I think!)

Enjoy!
comments
print report bad tab
3 comments total.
0 reply
bassist792 wrote on September 1 2006, 06:46 am

nice tab sounds great to me :)

0 reply
feeney wrote on December 6 2006, 06:59 am

great tab could u do america plz]

0 reply
frodo ladd wrote on January 4 2008, 02:16 pm

great

I want to post or [tab]
guest
You may want to rate the tab now too:
select rating
Please do not post tabs as comments. Select "correction" instead!