Oops, an error
Loading. Please wait.

Before I Fall To Pieces tab

version 1
version 1

Whole song

Interactive

13,011 views 12 this week
3 commentsread comments
1 2 3 4 5
x 7
add to favorites
×
Save as Personal and add changes to this tab that will be seen only by you. Learn more ›
×
You can save this tab as Personal to edit and correct it or add notes. All changes will be seen only by you. Learn more »
launch autoscroll
font size
0
reset
how to read this tab
guitar tuner
edit
Autoscroll
slow
fast
+/-
esc
set tempo
stop
---
Before I Fall to Pieces Chords
Guitarist: Johnny Borrell
Tabbed by: J >_<
---

Remember, in this song use a Capo on the 7th fret!

Intro/Chorus: (listen to rhythm - its a bit choppy)
e|0---------------|----0-----0-----2--3-2-0-0|
b|0---------------|----0-----0-----3--3-3-3-3|
g|0---------------|----0-----0-----2--2-2-2-2|
d|0---------------|----0-----2-----0--0-0-0-0|
a|0---------------|----2-----3-----0--0-0-0-0|
e|0---------------|----3-----x-----x--x-x-x-x|
   (1st time only)    (x6)  (x6)  (x6)

Rhythm of the above riff (strum on x):
|1 + 2 + 3 + 4 + |
|x   x x   x x x |

Verse:
e|-0-----0-----2-|
b|-0-----0-----3-|
g|-0-----0-----2-|
d|-0-----2-----0-|
a|-2-----3-----0-|
e|-3-----x-----x-|
(Just repeat these three chords, play them slowly and softly)

That's about it really, Bjorn plays all the hard stuff (you know, them nice arpeggio-y 
he always does - I don't know the guitar technicalities, I'm a drummer at heart!). I may 
be tabbing that as well.

            
            
Suggest correction
Creating personal tab
Creating personal tab
You can edit any tab online and save it as your Personal.

You can edit, replace or remove any tab part or add personal notes – all changes will be seen only by you.

Personal tabs can be accessed anytime from any device, even offline.
Learn more »
comments
print report bad tab
3 comments total.
+1 reply
zoltan 10 Jan 07, 2007 05:06 AM

it is:

e|0---------------|----3-----3-----3--3-2-0-2|
b|0---------------|----3-----3-----3--3-3-3-3|
g|0---------------|----0-----0-----2--2-2-2-2|
d|0---------------|----0-----2-----0--0-0-0-0|
a|0---------------|----2-----3-----x--x-x-x-x|
e|0---------------|----3-----x-----x--x-x-x-x|
x6 x6 x6
but besides that, great tab man

0 reply
beno93 277 Jan 28, 2007 12:22 PM

wot the fuk is this your a disgrace
great tab 5/5

0 reply
Conormck 41 Feb 19, 2007 06:01 AM

What about the bit of the song that goes . . "Well im just waiting for something that might never come" how do you play that bit?

guest
You may want to rate the tab now too:
select rating
Wanna post a correction for this tab? Suggest correction