Oops, an error
Loading. Please wait.

I Cant Stop This Feeling Ive Got Bass Tab

version 1
version 1

Whole song

Interactive

1,946 views 3 this week
no commentswrite comment
1 2 3 4 5
please rate
add to favorites
launch autoscroll
font size
0
reset
guitar tuner
Autoscroll
slow
fast
+/-
esc
set tempo
stop
Help us to improve Ultimate-Guitar.com Take our survey!
×
Contributor
Difficulty
novice
Razorlight's best song off the second album. i have tabbed the whole song minus the 
chorus as i havent worked it out yet!

this really is my first tab so go nice.

intro. (finger pick)
---------------------------------------------------------------------|
---------------------------------------------------------------------|
-2/9-----------------------------------------------------------------|
---------------------------------------------------------------------|

the break down parts. (best to finger pick these bits)

---------------------------------------------------------------------|
---------------------------------------------------------------------|
-0--5----------------------------------------------------------------|
---------------------------------------------------------------------|


First chorus ??? [sorry]

the break down parts once again. (best to finger pick these bits)

---------------------------------------------------------------------|
---------------------------------------------------------------------|
-0--5----------------------------------------------------------------|
---------------------------------------------------------------------|


Climax to the song (carl uses a pick at this point)

---------------------------------------------------------------------|
---------------------------------------------------------------------|
---9----77--------55-----9-----77-------555--------------------------| X 2
---------------5--------------------5--------------------------------|

---------------------------------------------------------------------|
---------------------------------------------------------------------|
---9999---7777-------------------------------------------------------| X 6
---------------------------------------------------------------------|

---------------------------------------------------------------------|
-------(really fast picking)-----------------------------------------|
--99999--7777777------------555555-----------------------------------| X 4
----------------------555--------------------------------------------|


outro
---------------------------------------------------------------------|
---------------------------------------------------------------------|
-99999---7777--------55-------55-------55--------55------5/9---------|
-----------------55------55--------55-------55-------55--------------|


may not be 100% but it serves as a rough guide!
comments
We did not receive enough feedback on this tab! Please rate:
print report bad tab
1 2 3 4 5
I want to post or [tab]
guest
You may want to rate the tab now too:
select rating
Please do not post tabs as comments. Select "correction" instead!