Oops, an error
Loading. Please wait.

In The Morning bass

version 1
version 1

Whole song

Interactive

8,965 views 21 this week
1 commentread comment
1 2 3 4 5
x 5
add to favorites
×
Save as Personal and add changes to this tab that will be seen only by you. Learn more ›
×
You can save this tab as Personal to edit and correct it or add notes. All changes will be seen only by you. Learn more »
launch autoscroll
font size
0
reset
guitar tuner
edit
Autoscroll
slow
fast
+/-
esc
set tempo
stop
Author
----------------------------------------------------------------------------
			     In The Morning - Razorlight
----------------------------------------------------------------------------

Tabbed By: Bendaman

Tuning: Standard

Great song from a great album, as there were no bass tabs for this i had to tab it!
This is my first tab so please comment, thanks.

Intro

G|------------------------------------------------------|
D|------------------------------------------------------|
A|-----------------------0--------------------7-7-5-5---|
E|-12\-3-3-3-3-3-3-3-3-3---0-0-0-0-0-0-0-0-0------------|

G|------------------------------------------------------|
D|------------------------------------------------------|
A|-------------------0-7-7-7-7-7-7-7-7-7-7-7-5-5--------|
E|-3-3-3-3-3-3-3-3-3------------------------------------|

Verse

G|------------------------------------------------------| 
D|------------------------------------------------------|
A|---------3h5--------------7-7-7-7------7-7-7-7-7-5-5--| X2
E|-3-3-3-3-----3-3-3-3-3-5-5--------8h10----------------|

G|------------------------------------------------------|
D|------------------------------------------------------|
A|-3-3-3-5-3-0-5-5-5-7-5--------------------------------|
E|-----------------------7-5-3--------------------------|

First Chorus

G|------------------------------------------------------|
D|------------------------------------------------------|
A|-----------------------7-7-7-7-5-7-7-7-5--------------|
E|-3-3-3-3-3-3-3-3-3-5-7-------------------7-5----------|

G|------------------------------------------------------|
D|------------------------------------------------------|
A|-----------------------7-7-7-7-5-7-7-7-5--------------|
E|-3-3-3-3-3-3-3-3-3-5-7-------------------7-7-5-5------|

Play Verse Again

Second Chorus

G|------------------------------------------------------|
D|------------------------------------------------------|
A|-----------------------7-7-7-7-5-7-7-7-5--------------|     
E|-3-3-3-3-3-3-3-3-3-5-7-------------------7-5----------|

G|------------------------------------------------------|
D|------------------------------------------------------|
A|-----------------------7-7-7-7-5-7-7-7-7-5-5----------|     
E|-3-3-3-3-3-3-3-3-3-5-7--------------------------------|

G|------------------------------------------------------|
D|------------------------------------------------------|
A|-3-3-3-3-3-1-3-----------3-5---------3-5-3-3-3---3-5--|
E|---------------3-3-3-3-5-----3-3-3-5-----------5------|

Bridge

G|------------|      |-------------------------|
D|------------|      |-------------------------|
A|-7-7-7-7-5--| X4   |-------------3-3---3-5-3-| X3
E|------------|      |-5-5-5-3-5-3-----5-------|

G|-------------------------------|
D|-------------------------------|
A|-------------3-3---3-5-3-------|
E|-5-5-5-3-5-3-----5-------5-3---|

G|-------------------------------|
D|-------------------------------|
A|-7-7-7-7-5-7-7-7-7-7-7-5-------|
E|-------------------------7-5-3-|

G|-------------------------------|
D|-------------------------------|
A|-7---lots of times ------------|
E|-------------------------------|

Third Chorus

G|------------------------------------------------------|
D|------------------------------------------------------|
A|-3-3-3-3-3-3-3---3-----------3-5-3-3-3-3-3---3--------|
E|---------------3---5-3-3-3-5---------------3----------|

Solo Bit

G|-------|
D|-------|
A|-7-5---|
E|-------|

G|------------------------------------------------------|
D|------------------------------------------------------|
A|------------------------------------------------------|
E|-----------------7-7---------------7-7----------------|

G|------------------------------------------------------|
D|---------------------1-4------------------------------|
A|-7-7-7-7-7-5-3-3-3-2----------------------------------|
E|------------------------------------------------------|

G|------------------------------------------------------| 
D|---------------------1-1-4-4--------------------------|
A|-7-7-7-7-7-5-3-3-3-2----------------------------------|
E|------------------------------------------------------|
 
Repeat this bit to end

In the very last bit there some small varaiations to the D|-1-1-4-4-| part.

| /  slide up
| \  slide down
| h  hammer-on
| p  pull-off
| ~  vibrato
| +  harmonic
| x  Mute note
============================================================================
Suggest correction
Creating personal tab
Creating personal tab
You can edit any tab online and save it as your Personal.

You can edit, replace or remove any tab part or add personal notes – all changes will be seen only by you.

Personal tabs can be accessed anytime from any device, even offline.
Learn more »
comments
print report bad tab
1 comment total.
+1 reply
feeney 112 Dec 06, 2006 04:25 AM

hay could u do me a favor and post america by razorlight plz xxgreat tab by the way its really good x

guest
You may want to rate the tab now too:
select rating
Wanna post a correction for this tab? Suggest correction