Oops, an error
Loading. Please wait.

In The Morning tab

version 2
version 2

Whole song

Interactive

5,821 views 6 this week
2 commentsread comments
1 2 3 4 5
x 7
add to favorites
×
Save as Personal and add changes to this tab that will be seen only by you. Learn more ›
×
You can save this tab as Personal to edit and correct it or add notes. All changes will be seen only by you. Learn more »
launch autoscroll
font size
0
reset
how to read this tab
guitar tuner
edit
Autoscroll
slow
fast
+/-
esc
set tempo
stop
I'm pretty sure this is correct. For the verses listen to the song, it's a bit fiddly. 
song though, Enjoy!

Intro:
e|-----12------12--12-12-12-12-12--12-12-12--|
b|-----12------12--12-12-12-12-12--15-12-12--|
g|-----12------12--12-12-12-12-12--12-12-14--|
d|-12--12--12--12--12-12-12-12-12--12-12-12--|
a|-10--10--10--10--12-12-12-12-12--12-12-12--|
e|-------------------------------------------|

e|----7-----7--7-7-7-7-7-7--10-7-7--7-|
b|----8-----8--8-8-8-8-8-8--8--8-10-8-|
g|----9-----9--7-7-7-7-7-7--7--7-7--7-|
d|-9--9--9--9--9-9-9-9-9-9--9--9-9--9-|
a|-7--7--7--7--7-7-7-7-7-7--7--7-7--7-|
e|------------------------------------|

e|-----12------12--12-12-12-12-12--12-12-14-------|
b|-----12------12--12-12-12-12-12--15-12-12-------|
g|-----12------12--12-12-12-12-12--12-12-12-------|
d|-12--12--12--12--12-12-12-12-12--12-12-12-------|
a|-10--10--10--10--12-12-12-12-12--12-12-12-------|
e|------------------------------------------------|

e|----7-----7--7-7-7-7-7-7--10-7-7--7-|
b|----8-----8--8-8-8-8-8-8--8--8-10-8-|
g|----9-----9--7-7-7-7-7-7--7--7-7--7-|
d|-9--9--9--9--9-9-9-9-9-9--9--9-9--9-|
a|-7--7--7--7--7-7-7-7-7-7--7--7-7--7-|
e|------------------------------------|


Verse:
Same chords but rippled. Listen for rhythm.


Pre-Chorus
e|-12--7--7-|
b|-12--8--8-|
g|-12--9--7-|
d|-12--9--9-|
a|-10--7--7-|
e|


Chorus 1:
e|-----12------12-|-----12------12-|
b|-----12------12-|-----12------12-|
g|-----12------12-|-----12------12-|
d|-12--12--12--12-|-12--12--12--12-|
a|-10--10--10--10-|-10--10--10--10-|
e|----------------|----------------|

e|----7-----7--7-7-7-7-7-7--10-7-7--7-|
b|----8-----8--8-8-8-8-8-8--8--8-10-8-|
g|----9-----9--7-7-7-7-7-7--7--7-7--7-|
d|-9--9--9--9--9-9-9-9-9-9--9--9-9--9-|
a|-7--7--7--7--7-7-7-7-7-7--7--7-7--7-|
e|------------------------------------|   x2


Verse: Same as before.


Pre-Chorus: Same As Before


Chorus 2:
e|-----12------12--12-12-12-12-12--12-12-12--|
b|-----12------12--12-12-12-12-12--15-12-12--|
g|-----12------12--12-12-12-12-12--12-12-14--|
d|-12--12--12--12--12-12-12-12-12--12-12-12--|
a|-10--10--10--10--12-12-12-12-12--12-12-12--|
e|-------------------------------------------|


e|----7-----7--7-7-7-7-7-7--10-7-7--7-|
b|----8-----8--8-8-8-8-8-8--8--8-10-8-|
g|----9-----9--7-7-7-7-7-7--7--7-7--7-|
d|-9--9--9--9--9-9-9-9-9-9--9--9-9--9-|
a|-7--7--7--7--7-7-7-7-7-7--7--7-7--7-|
e|------------------------------------|


e|-----12------12--12-12-12-12-12--12-12-14-------|
b|-----12------12--12-12-12-12-12--15-12-12-------|
g|-----12------12--12-12-12-12-12--12-12-12-------|
d|-12--12--12--12--12-12-12-12-12--12-12-12-------|
a|-10--10--10--10--12-12-12-12-12--12-12-12-------|
e|------------------------------------------------|

e|----7-----7--7-7-7-7-7-7--10-7-7--7-|
b|----8-----8--8-8-8-8-8-8--8--8-10-8-|
g|----9-----9--7-7-7-7-7-7--7--7-7--7-|
d|-9--9--9--9--9-9-9-9-9-9--9--9-9--9-|
a|-7--7--7--7--7-7-7-7-7-7--7--7-7--7-|
e|------------------------------------|


Bridge:
e|-----12------12-|-----12------12-|
b|-----12------12-|-----12------12-|
g|-----12------12-|-----12------12-|
d|-12--12--12--12-|-12--12--12--12-|
a|-10--10--10--10-|-10--10--10--10-|
e|----------------|----------------|

e|--12-12-12-12-12--12-12-12--|--12-12-12-12-12--12-12-12-|
b|--12-12-12-12-12--15-12-12--|--12-12-12-12-12--15-12-12-|
g|--12-12-12-12-12--12-12-14--|--12-12-12-12-12--12-12-14-|
d|--12-12-12-12-12--12-12-12--|--12-12-12-12-12--12-12-12-|
a|--12-12-12-12-12--12-12-12--|--12-12-12-12-12--12-12-12-|
e|----------------------------|---------------------------|

e|-----12------12-----|
b|-----12------12-----|
g|-----12------12-----|
d|-12--12--12--12--12-|
a|-10--10--10--10--10-|
e|--------------------|


Pre-Solo:– NO WORDS
e|----7-----7-----7-----7-|
b|----8-----8-----8-----8-|
g|----9-----9-----7-----7-|
d|-9--9--9--9--9--9--9--9-|
a|-7--7--7--7--7--7--7--7-|
e|------------------------|    x2

Then,
e|--12-|
b|--12-|
g|--12-|
d|--12-|
a|--10-|
e|-----|


Solo:
e|----------------------------------------------------10-------12-----12-|
b|--13-12-10---------------------13-12-10--------------------------------|
g|-----------12-12-11-9-------------------12-12-11-12----12--12--12-12---|
d|----------------------12-10-9------------------------------------------|
a|-----------------------------------------------------------------------|
e|-----------------------------------------------------------------------|

e|------12---10-h12p-10---12-----12-----12---10-h12p-10----------------|
b|---------------------------------------------------------------------|
g|-12-12--12------------12--12--12-12-12--12---------------------------|
d|---------------------------------------------------------------------|
a|---------------------------------------------------------------------|
e|---------------------------------------------------------------------|


Verse 3:- Listen to song for when to play these bits
e|----7-----7-----7----7-7-|
b|----8-----8-----8----8-8-|
g|----9-----9-----7----7-7-|
d|-9--9--9--9--9--9--9-9-9-|
a|-7--7--7--7--7--7--7-7-7-|
e|-------------------------|

e|--12--12--7--7|
b|--12--12--8--8|
g|--12--12--9--7|
d|--12--12--9--9|
a|--10--12--7--7|
e|--------------|


Bridge(Again):
e|-----12------12-|-----12------12-|
b|-----12------12-|-----12------12-|
g|-----12------12-|-----12------12-|
d|-12--12--12--12-|-12--12--12--12-|
a|-10--10--10--10-|-10--10--10--10-|
e|----------------|----------------|

e|--12-12-12-12-12--12-12-12--|--12-12-12-12-12--12-12-12-|
b|--12-12-12-12-12--15-12-12--|--12-12-12-12-12--15-12-12-|
g|--12-12-12-12-12--12-12-14--|--12-12-12-12-12--12-12-14-|
d|--12-12-12-12-12--12-12-12--|--12-12-12-12-12--12-12-12-|
a|--12-12-12-12-12--12-12-12--|--12-12-12-12-12--12-12-12-|
e|----------------------------|---------------------------|

e|-----12------12-----|
b|-----12------12-----|
g|-----12------12-----|
d|-12--12--12--12--12-|
a|-10--10--10--10--10-|
e|--------------------|


Then,
e|--12---7-|
b|--12---8-|
g|--12---9-|
d|--12---9-|
a|--10---7-|
e|---------|


Outro x7 (Words come in after x2):
e|-7-7-7-7-7--10-7-7--7-|-7-7-7-7-7--10-7-7--7-|
b|-8-8-8-8-8--8--8-10-8-|-8-8-8-8-8--8--8-10-8-|
g|-9-9-9-9-7--7--7-7--7-|-9-9-9-9-7--7--7-7--7-|
d|-9-9-9-9-9--9--9-9--9-|-9-9-9-9-9--9--9-9--9-|
a|-7-7-7-7-7--7--7-7--7-|-7-7-7-7-7--7--7-7--7-|
e|----------------------|----------------------|


e|-8--8--8--8--8--8--8--8--8----7-7-7-7-7-7-7-7-7|
b|-8--8--8--8--8--8--8--8--8----7-7-7-7-7-7-7-7-7|
g|-9--9--9--9--9--9--9--9--9----8-8-8-8-8-8-8-8-8|
d|-10-10-10-10-10-10-10-10-10---7-7-7-7-7-7-7-7-7|
a|-10-10-10-10-10-10-10-10-10---9-9-9-9-9-9-9-9-9|
e|-8--8--8--8--8--8--8--8--8----7-7-7-7-7-7-7-7-7|


End on:
e|-7-|
b|-8-|
g|-9-|
d|-9-|
a|-7-|
e|---|
Suggest correction
Creating personal tab
Creating personal tab
You can edit any tab online and save it as your Personal.

You can edit, replace or remove any tab part or add personal notes – all changes will be seen only by you.

Personal tabs can be accessed anytime from any device, even offline.
Learn more »
comments
print report bad tab
2 comments total.
0 reply
CubeShindig 15 Aug 18, 2006 12:34 PM

Dont just steal my intro without giving me any credit

0 reply
dlake12 10 Nov 28, 2013 07:27 AM

The song clearly uses two guitars, most obvious at the intro

guest
Wanna post a correction for this tab? Suggest correction