Oops, an error
Loading. Please wait.

Los Angeles Waltz bass

version 1
version 1

Whole song

Interactive

679 views 1 this week
1 commentread comment
1 2 3 4 5
2 more votes to show rating
add to favorites
×
Save as Personal and add changes to this tab that will be seen only by you. Learn more ›
×
You can save this tab as Personal to edit and correct it or add notes. All changes will be seen only by you. Learn more »
launch autoscroll
font size
0
reset
guitar tuner
edit
Autoscroll
slow
fast
+/-
esc
set tempo
stop
Author
Difficulty
Razorlight - Los Angeles Waltz
Bass Tab
-----
Bassist: Carl Dalemo
Tabber: J
-----

This is quite a simple tab, but remember its in 3/4 (as the name suggests!). Normal tuning.

Intro:
G|---------------------------------------------------|
D|----11-9--------------11-9-12-12121212-12-12121212-|
A|-9-------5---5-5-7-9-------------------------------|
E|---------------------------------------------------| (x2)

Verses 1 + 2:
G|---------------------------------------------------------|
D|---------------------------------------------------------|
A|-9---9\5---5/9---9\5---5-5-7-9---9\5---5/9---9\5-----5-4-|
E|---------------------------------------------------------|

G|-----4--2---------------4--2---------------4--2------------------------------------|
D|----------4---4-4-2----------4---4-2------------4---4-2-4-5---5-4-5--7-7777-7-7777-|
A|-2------------------2----------------4-2-------------------------------------------|
E|-----------------------------------------------------------------------------------|

Choruses 1, 2 and 3:
G|---------------------|
D|-----------4--4-2--2-|
A|-0---0-2-4-----------|
E|---------------------| (x4)

Verse 3:
G|-------------------|              G|---------------------|
D|----11-9-----------|              D|---------------------|
A|-9-------5---5-5-7-|              A|-9--9-7--7-5--5-5--5-|
E|-------------------|(x4, then...) E|---------------------|(x2)

G|-----4--2---------------4--2---------------4--2------------------------------------|
D|----------4---4-4-2----------4---4-2------------4---4-2-4-5---5-4-5--7-7777-7-7777-|
A|-2------------------2----------------4-2-------------------------------------------|
E|-----------------------------------------------------------------------------------|

There is no bass on the "we own eachother" bit. But when he starts with "tonight in LA", 
this starting very quiet and gradually building to just a smidge quieter than normal volume:

Interlude:
G|-------------------------|
D|-------------------------|
A|-9-9-9-7-7-7-5-5-5-5-5-5-|
E|-------------------------|(x4, then...)

(back to normal volume now)
G|-------------------------|
D|-7-7-7-7-7-7-------------|
A|-------------9-9-9-7-7-7-|
E|-------------------------|(x4)

G|-2-2-2-2-----------------|
D|-------------4-4-4-2-2-2-|
A|---------2-4-------------|
E|-------------------------|(x4)

Outro:
G|---------------------------------------|
D|------0-2-4--2-0----0--0---0--2--2-2-0-|
A|-4--4-------------0------0-------------|
E|---------------------------------------| (until the end)


I think that's it - comments welcome!

            
            
Suggest correction
Creating personal tab
Creating personal tab
You can edit any tab online and save it as your Personal.

You can edit, replace or remove any tab part or add personal notes – all changes will be seen only by you.

Personal tabs can be accessed anytime from any device, even offline.
Learn more »
Give kudos to tab author, rate the tab!
1 2 3 4 5
comments
print report bad tab
1 comment total.
0 reply
Thunderbird_Fan 83 Mar 10, 2011 02:56 AM

i think its 6/8 actually.

guest
You may want to rate the tab now too:
select rating
Wanna post a correction for this tab? Suggest correction