Oops, an error
Loading. Please wait.

Up All Night tab

version 1
version 1

Whole song

4,385 views 6 this week
1 commentread comment
1 2 3 4 5
x 7
add to favorites
×
Save as Personal and add changes to this tab that will be seen only by you. Learn more ›
×
You can save this tab as Personal to edit and correct it or add notes. All changes will be seen only by you. Learn more »
launch autoscroll
font size
0
reset
how to read this tab
guitar tuner
edit
Autoscroll
slow
fast
+/-
esc
set tempo
stop
Author
*INTRO*
GUITAR 2

E |--5~--|------|-------|------|------|-------|--8~--|--8~--|--10~--|--10~--| 
B |--6~--|--8~--|--10~--|--6~--|--8~--|--10~--|--8~--|--8~--|--10~--|--10~--|
G |--7~--|--9~--|--10~--|--7~--|--9~--|--10~--|--9~--|--9~--|--10~--|--10~--|
D |------|--7~--|--8~---|--5~--|--7~--|--8~---|-10~--|-10~--|--10~--|--10~--|
A |------|------|-------|------|------|-------|------|------|-------|-------| 
E |------|------|-------|------|------|-------|------|------|-------|-------|



*VERSES*
I LOST A SACRED FEELING....
GUITAR 1 & 2

E |--8~--|--8~--|--10~--|--10~--|
B |--8~--|--8~--|--10~--|--10~--|
G |--9~--|--9~--|--10~--|--10~--|
D |-10~--|-10~--|--10~--|--10~--|
A |------|------|-------|-------|
E |------|------|-------|-------|



*BRIDGE*
I'VE BEEN UP ALL NIGHT....
GUITAR 1

E |----------------------------------------|
B |----------------------------------------|
G |--14~-------12~--------/5~--------------| x3
D |----------------------------------------|
A |----------------------------------------|
E |----------------------------------------|

GUITAR 2 

E |---8~-----|--8~--|-----10~--------------|
B |---8~-----|--8~--|-----10~--------------|
G |---9~-----|--9~--|-----10~--------------| x3
D |--10~-----|-10~--|-----10~--------------|
A |----------|------|----------------------|
E |----------|------|----------------------|



*INTERLUDE*
GUITAR 1

E |----------------------------------------------------------------|
B |----------------------------------------------------------------|
G |--14-14-14-14-14-14-14-14-12-12-12-12-12-12/5-5-5-5-5-5-5-5-5-5-| x2
D |----------------------------------------------------------------|
A |----------------------------------------------------------------|
E |----------------------------------------------------------------|

GUITAR 2

E |----------------------------------------------------------------| 
B |--------------------------------------------2-2-2-2-2-2-2-2-2-2-|
G |--------------------------------------------2-2-2-2-2-2-2-2-2-2-| x2
D |--5-5-5-5-5-5-5-5-5-5-5-5-7-7-7-7-7-7-7-7-7-1-1-1-1-1-1-1-1-1-1-|
A |--5-5-5-5-5-5-5-5-5-5-5-5-5-7-7-7-7-7-7-7-7---------------------| 
E |--3-3-3-3-3-3-3-3-3-3-3-3-5-5-5-5-5-5-5-5-5---------------------|



*VERSE 2*
GUITAR 1
E |--8~--|--8~--|--10~--|--10~--|  (SAME VERSES)
B |--8~--|--8~--|--10~--|--10~--|
G |--9~--|--9~--|--10~--|--10~--|
D |-10~--|-10~--|--10~--|--10~--|
A |------|------|-------|-------|
E |------|------|-------|-------|


GUITAR 2 PLAY THIS THROUGH VERSES

E |------|------|-------|-------|
B |--5~--|--5~--|--6~---|--6~---| PLAY THIS UNTIL CHORUS
G |--5~--|--5~--|--7~---|--7~---|
D |--5~--|--5~--|--7~---|--7~---|
A |--3~--|--3~--|--5~---|--5~---| 
E |------|------|-------|-------|



*BRIDGE 2*
GUITAR 1

E |----------------------------------------|
B |----------------------------------------|
G |--14~-------12~--------/5~--------------| x3
D |----------------------------------------|
A |----------------------------------------|
E |----------------------------------------|

GUITAR 2 

E |---8~-----|--8~--|-----10~--------------|
B |---8~-----|--8~--|-----10~--------------|
G |---9~-----|--9~--|-----10~--------------| x3
D |--10~-----|-10~--|-----10~--------------|
A |----------|------|----------------------|
E |----------|------|----------------------|



*SOLO*
GUITAR 2

E |----------------------------------------------------------------| 
B |--------------------------------------------2-2-2-2-2-2-2-2-2-2-|
G |--------------------------------------------2-2-2-2-2-2-2-2-2-2-| CONTINUE PLAYING THIS THROUGH
D |--5-5-5-5-5-5-5-5-5-5-5-5-7-7-7-7-7-7-7-7-7-1-1-1-1-1-1-1-1-1-1-| ALL SOLO (x4)
A |--5-5-5-5-5-5-5-5-5-5-5-5-5-7-7-7-7-7-7-7-7---------------------| 
E |--3-3-3-3-3-3-3-3-3-3-3-3-5-5-5-5-5-5-5-5-5---------------------|

GUITAR 1

E |-----------------------------------------------------------------------|
B |--------------------------------------------------------6----6---------|
G |-14-14-14-14-14-14-14-14-12-12-12-12-12-12/5-5-5-5-5-5-7--5-7--7-5-----|
D |-----------------------------------------------------------------------|
A |-----------------------------------------------------------------------|
E |-----------------------------------------------------------------------|

E |-------------------------------------------------------------12-13-12--| 
B |----------------------------------------13-13-13-13-13-13-15-----------|
G |-14-14-14-14-14-14-14-14-12-12-12-12-12--------------------------------|
D |-----------------------------------------------------------------------|
A |-----------------------------------------------------------------------| 
E |-----------------------------------------------------------------------|

E |-------15-15-15-15-15-15-17-17-17-17-17-13-15-17-18-17-15-13-15-17-17--| 
B |-15-13-----------------------------------------------------------------|
G |-----------------------------------------------------------------------|
D |-----------------------------------------------------------------------|
A |-----------------------------------------------------------------------| 
E |-----------------------------------------------------------------------|

E |-17-17-17-17-17-17-17-17-17-17/22-22-22-22-22-22-20-20-20-20-20--------| 
B |-----------------------------------------------------------------------|
G |-----------------------------------------------------------------------|
D |-----------------------------------------------------------------------|
A |-----------------------------------------------------------------------| 
E |-----------------------------------------------------------------------|



*VERSE 3*
GUITAR 1&2
                  |***|
E |------|------|-----------|-------|
B |--5~--|--5~--|--5-5--6~--|--6~---|
G |--5~--|--5~--|--5-5--7~--|--7~---|
D |--5~--|--5~--|--5-5--7~--|--7~---|
A |--3~--|--3~--|--3-3--5~--|--5~---|
E |------|------|-----------|-------|

*** only guitar 1 plays this chords, while guitar 2 wait mute



*PRE BRIDGE*
GUITAR 1
COS IV BEEN UP ALL NIGHT

E |-------------------------------------------------|  PLAY THIS UNTIL
B |------------------------------------13-----------|     THE CHROUS
G |--14-X-X-14-X-X-14-X-X-14-X-X-12-14----14-12/11--|
D |-------------------------------------------------|
A |-------------------------------------------------|
E |-------------------------------------------------|



*BRIDGE*
I'VE BEEN UP ALL NIGHT....
GUITAR 1

E |----------------------------------------|
B |-----------------------13---------------|
G |--14~-------12~--------------------10---|
D |----------------------------------------|
A |----------------------------------------|
E |----------------------------------------|

GUITAR 2 

E |---8~-----|--8~--|-----10~--------------|
B |---8~-----|--8~--|-----10~--------------|
G |---9~-----|--9~--|-----10~--------------|
D |--10~-----|-10~--|-----10~--------------|
A |----------|------|----------------------|
E |----------|------|----------------------|




*FINAL SOLO*
GUITAR 2

E |----------------------------------------------------------------| 
B |--------------------------------------------2-2-2-2-2-2-2-2-2-2-|
G |--------------------------------------------2-2-2-2-2-2-2-2-2-2-| CONTINUE PLAYING THIS THROUGH
D |--5-5-5-5-5-5-5-5-5-5-5-5-7-7-7-7-7-7-7-7-7-1-1-1-1-1-1-1-1-1-1-| ALL SOLO (x4)
A |--5-5-5-5-5-5-5-5-5-5-5-5-5-7-7-7-7-7-7-7-7---------------------| 
E |--3-3-3-3-3-3-3-3-3-3-3-3-5-5-5-5-5-5-5-5-5---------------------|

GUITAR 1

E |-----------------------------------------------------------------------|
B |--------------------------------------------------------6----6---------|
G |-14-14-14-14-14-14-14-14-12-12-12-12-12-12/5-5-5-5-5-5-7--5-7--7-5-----|
D |-----------------------------------------------------------------------|
A |-----------------------------------------------------------------------|
E |-----------------------------------------------------------------------|

E |-------------------------------------------------------------12-13-12--| 
B |----------------------------------------13-13-13-13-13-13-15-----------|
G |-14-14-14-14-14-14-14-14-12-12-12-12-12--------------------------------|
D |-----------------------------------------------------------------------|
A |-----------------------------------------------------------------------| 
E |-----------------------------------------------------------------------|

E |-------15-15-15-15-15-15-17-17-17-17-17-13-15-17-18-17-15-13-15-17-17--| 
B |-15-13-----------------------------------------------------------------|
G |-----------------------------------------------------------------------|
D |-----------------------------------------------------------------------|
A |-----------------------------------------------------------------------| 
E |-----------------------------------------------------------------------|

E |-17-17-17-17-17-17-17-17-17-17/22-22-22-22-22-22-20-20-20-20-20--------| 
B |-----------------------------------------------------------------------|
G |-----------------------------------------------------------------------|
D |-----------------------------------------------------------------------|
A |-----------------------------------------------------------------------| 
E |-----------------------------------------------------------------------|


ENJOY....

ALAN MC

RIP IT UP
Suggest correction
Creating personal tab
Creating personal tab
You can edit any tab online and save it as your Personal.

You can edit, replace or remove any tab part or add personal notes – all changes will be seen only by you.

Personal tabs can be accessed anytime from any device, even offline.
Learn more »
comments
print report bad tab
1 comment total.
0 reply
Jimbob Hendrix 309 Jun 12, 2006 10:57 PM

some of it is brilliant but i dont know about the last chord in the chorus the 221 on the d,g,b did you mean a minor?

guest
You may want to rate the tab now too:
select rating
Wanna post a correction for this tab? Suggest correction