Oops, an error
Loading. Please wait.

Dos Enamorados tab

version 2
version 2

Whole song

by RBD
47 views 1 this week
no commentswrite comment
1 2 3 4 5
3 more votes to show rating
add to favorites
×
Save as Personal and add changes to this tab that will be seen only by you. Learn more ›
×
You can save this tab as Personal to edit and correct it or add notes. All changes will be seen only by you. Learn more »
launch autoscroll
font size
0
reset
how to read this tab
guitar tuner
edit
Autoscroll
slow
fast
+/-
esc
set tempo
stop
ESTA CANCION ME LA DEDICO MY AMOR Y LA SAQUE ESA NOCHE
VA DEDICADO A MY CHIKITA,MY AMOR
 TANIA SELENE

                MY TANISS

TE AMO


ACORDES:> C F G Am CM7

INTRO:   C F C F

C                      F
E-0--------0-----------1---------1-------------
B------1-------1-------------1------1----------
G----0---0---0---0---------2---2---2--2--------
D----------------------------------------------
A-3--------------------------------------------
E----------------------1-----------------------

            Mañana que amanezca       le pediré


C                      F
E-0---------0----------1---------1-------------
B------1-------1-------------1-------1----------
G----0---0---0---0---------2---2---2---2--------
D----------------------------------------------
A-3--------------------------------------------
E----------------------1-----------------------
            Mañana que la vea
C                      F
E-0--------0-----------1---------1-------------
B------1-------1-------------1------1----------
G----0---0---0---0---------2---2---2--2--------
D----------------------------------------------
A-3--------------------------------------------
E----------------------1-----------------------
            Mañana que amanezca   me pedirá

C                     -F
E-0--------0-----------1---------1-------------
B------1-------1-------------1------1----------
G----0---0---0---0---------2---2---2--2--------
D----------------------------------------------
A-3--------------------------------------------
E----------------------1-----------------------
            Mañana que lo vea

G                     F
E-1--------1----------1----------1-------------
B------1-------1-------------1------1----------
G----0---0---0---0---------2---2---2--2--------
D----------------------------------------------
A----------------------------------------------
E-3-------------------1------------------------
            Y me pongo a temblar

G                     F
E-1--------1----------1----------1-------------
B------1-------1-------------1------1----------
G----0---0---0---0---------2---2---2--2--------
D----------------------------------------------
A----------------------------------------------
E-3-------------------1------------------------
          Me muero de las ganas de abrazarte

C                     G
E-1--------1----------3----------3-------------
B------1-------1-------------3--------3--------
G----0---0---0---0---------0---0----0---0------
D----------------------------------------------
A-3--------------------------------------------
E---------------------3------------------------
            Y el corazón es quien te llama
           F
E----------1--------1--------------
B---------------1--------1---------
G-------------2---2----2---2-------
D----------------------------------
A----------------------------------
E----------1-----------------------
            mi amor.

AQUI  EMPIEZA EL RAZGEO QUE ESTA PICHANGA SOLO ESCUCHENLA TA PAJA
PERO SY KIEREN  PUEDEN TOCARLA CON EL MISMO ARPEGIO  TODA LA
CANCION SOLO DENLE SUS TIEMPOS CORRESPONDIENTES   Y DISFRUTENLA
             C
Si dices que si
          G              Am             F
te protegeré con todo mi amor y mi corazón
            C
Si digo que si
          G           Am                G
te prometeré mi fidelidad y mi comprensión

                     CM7
Y en este mundo tan raro,
             Am7
se van de la mano
           F             G
uniendo caminos, oh, oh, oh
          C             G         F                       G
dos enamorados, oh, oh, oh, nara, nara, nara, nara, nara, na
C        G         F                       G
oh, oh, oh, nara, nara, nara, nara, nara, na

C               F
Mañana que amanezca
         C
no será igual
                   F  C
mañana ella me espera.
               F
Mañana que amanezca
         C
no será igual
               F  C
mañana que lo vea.

G               F
Y me pongo a rezar
G                F
me muero de las ganas de besarte
          C               G
y la razón no entiende nada
     F
corazón.

             C
Si dices que si
          G              Am             F
te protegeré con todo mi amor y mi corazón
            C
Si digo que si
          G           Am                F
te prometeré mi fidelidad y mi comprensión.


                     CM7
Y en este mundo tan raro,
             Am7
se van de la mano
           F             G
uniendo caminos, oh, oh, oh
          C             G         F                       G
dos enamorados, oh, oh, oh, nara, nara, nara, nara, nara, na
C        G         F                       G
oh, oh, oh, nara, nara, nara, nara, nara, na

                   CM7
Y en este mundo tan raro,
             Am7
se van de la mano
           F             G
uniendo caminos, oh, oh, oh
          C             G         F                       G
dos enamorados, oh, oh, oh, nara, nara, nara, nara, nara, na
C        G         F                       G
oh, oh, oh, nara, nara, nara, nara, nara, na
ESTA SUPER CHIDA   DEDIQUENLA A SU FLACA Y..

...................

            
            
Suggest correction
Creating personal tab
Creating personal tab
You can edit any tab online and save it as your Personal.

You can edit, replace or remove any tab part or add personal notes – all changes will be seen only by you.

Personal tabs can be accessed anytime from any device, even offline.
Learn more »
Give kudos to tab author, rate the tab!
1 2 3 4 5
comments
print report bad tab
guest
Wanna post a correction for this tab? Suggest correction