Oops, an error
Loading. Please wait.

Y No Se Que Paso tab

by RBD
56 views 1 this week
no commentswrite comment
1 2 3 4 5
3 more votes to show rating
add to favorites
×
Save as Personal and add changes to this tab that will be seen only by you. Learn more ›
×
You can save this tab as Personal to edit and correct it or add notes. All changes will be seen only by you. Learn more »
launch autoscroll
font size
0
reset
how to read this tab
guitar tuner
edit
Autoscroll
slow
fast
+/-
esc
set tempo
stop
Q onda!!! Mi nombre es Alex y esta va ser mi primera trascripción,
pero sin duda esta 100% correcta. Cualquier duda comentario sugerencia
o otra cosa a mi correo
adrianalejandro1982@


   E  B  C#m7  A  C#m  Bm7
e  0  2   4    0   4    2
b  0  4   5    2   5    3
g  1  4   4    2   6    2
D  2  4   6    2   6    4
A  2  2   4    0   4    2
E  0  2   4    0   4    2


/=slide

Intro

                  E                    B

e--------0--0-----0----------0--0-----0/2-----
b--0--0--------4-------0--0--------4-------0--
g---------------------------------------------
D---------------------------------------------
A---------------------------------------------
E---------------------------------------------

         C#m7                    A,B

-----2--2/4--2-----------------------------
--5-------------5--4--4/5--5/7--5----------
-----------------------------------4/6--4--
-------------------------------------------
-------------------------------------------
-------------------------------------------

    E
En las noches,
B                  C#m7            B
Tengo mucho miedo al soñar, contigo
    E
y esto,
B                      C#m7                   B
No es solo un castigo es algo que siento por ti.


A                  B
Inútil es pensar, que un día volverás,
C#m              B
Pues la soledad me mata cada día mas...


              E                  B
Y no se que paso, y no se en que falle,
        C#m7                Bm7-B
Si mi amor te lo entregue a ti
               E                  B
Y no se que paso y no se en que falle
         C#m7                      A
Si muchas veces me arriesgue, por ti...

                  E,                   B,

e--------0--0-----0----------0--0-----0/2-----
b--0--0--------4-------0--0--------4-------0--
g---------------------------------------------
D---------------------------------------------
A---------------------------------------------
E---------------------------------------------
    y no se que paso                  no se lo que paso

        C#m7                   A,B

-----2--2/4--2-----------------------------
--5-------------5--4--4/5--5/7--5----------
-----------------------------------4/6--4--
-------------------------------------------
-------------------------------------------
-------------------------------------------
 no se..........

     E
Que difícil enfrentar,
 B                    C#m7                B
Esta cruda realidad, porque ya no estas, aquí
 E
Pero tengo que seguir,
 B                     C#m7               B
A pesar de este dolor, que mata sin, sin tu amor...


A                  B
Inútil es pensar, que un día volverás,
C#m              B
Pues la soledad me mata cada día mas...


              E                  B
Y no se que paso, y no se en que falle,
        C#m7                Bm7-B
Si mi amor te lo entregue a ti
               E                  B
Y no se que paso y no se en que falle
         C#m7                      A
Si muchas veces me arriesgue, por ti...


              A
Por que es cierto que la vida,
       B
No es igual sin ti,
           C#m7
Y aunque pase lo que pase,
         B
Seguiras dentro de mí...


              E                  B
Y no se que paso, y no se en que falle,
        C#m7                Bm7-B
Si mi amor te lo entregue a ti

                  E                    B
e--------0--0-----0----------0--0-----0/2-----
b--0--0--------4-------0--0--------4-------0--
g---------------------------------------------
D---------------------------------------------
A---------------------------------------------
E---------------------------------------------
    Solo a ti...            wowow,          te quiero para mi

       C#m7                    A             B
-----2--2/4--2-----------------------------
--5-------------5--4--4/5--5/7--5----------
-----------------------------------4/6--4--
-------------------------------------------
-------------------------------------------
-------------------------------------------
                       mas nunca sabré mas nunca podré


           E                  B
y no se que paso y no se en que falle
  C#m7                     B
si mi amor te lo entregue a ti
              E                     B
Y no se que paso y no se en que falle,
                 C#m         C#m7                  E
Pues si tu nos estas aquí, en vida sin ti, yo moriré.
Suggest correction
Creating personal tab
Creating personal tab
You can edit any tab online and save it as your Personal.

You can edit, replace or remove any tab part or add personal notes – all changes will be seen only by you.

Personal tabs can be accessed anytime from any device, even offline.
Learn more »
Give kudos to tab author, rate the tab!
1 2 3 4 5
comments
print report bad tab
guest
Wanna post a correction for this tab? Suggest correction