Oops, an error
Loading. Please wait.

Al Rojo De La Tarde bass

125 views 1 this week
no commentswrite comment
1 2 3 4 5
3 more votes to show rating
add to favorites
×
Save as Personal and add changes to this tab that will be seen only by you. Learn more ›
×
You can save this tab as Personal to edit and correct it or add notes. All changes will be seen only by you. Learn more »
launch autoscroll
font size
0
reset
guitar tuner
edit
Autoscroll
slow
fast
+/-
esc
set tempo
stop
Bueno aqui les dejo mi segunda colaboracion,
hoy con un poco de blues de esta banda,
les recomiendo escuchar mucho la cancion para agarrar los tiempos
Esta tab es de la version original, espero y les sirva,
 yo soy José Manuel Zárate García
y si quieren alguna transcripción no duden en mandarme un mensaje a mi correo:
Strokes987@

Al Rojo de la Tarde.

Afinación Standard G D A E

INTRO
El bajo entra después de que la guitarra hace un pequeño arreglo

     C        C#        D   C  Bm  A  D
G|---------------------------------------|
D|---------------------------------------|
A|-3---3--3-4---4--4-4-5-5-3-3-2-2----5--|
E|---3--------4--------------------5-----|

cuando empieza a cantar hacemos esto:
Al rojo de la tarde...
      G     B7           Em       C     C#         D
G|------------------------------------------------------------------------|
D|--------------9---------------------------------------------------------|
A|----------2-2/9--9-5-7--77----2-3--3-4--4-5--55-3h4-5--55----5---3--33-3|
E|-3-33-3-5-------------------5------------------------------3---3--------|

 G        C       G       D7
G|-------------------------------|
D|-------------------------------|
A|--------2-3333-2-------3-4-5---|
E|-3333-5----------5-3--3--------|

De notas desgarradas...

    G       B7        Em        C     C#     D            D  C
G|-------------------------------------------------------------------|
D|-------------------------2-----------------------------------------|
A|----------2--22--------------2-3--3-4-4-5--55-3h4-5-55---5--3--33-3|
E|-3-33-3-5-------3-2-0-00---5---------------------------3--3--------|

   G        C       G       D7
G|-------------------------------|
D|-------------------------------|
A|--------2-3333-2-------3-4-5---|
E|-3333-5----------5-3--3--------|

CORO

       El moño azul....        Le prende al pecho...
   C# C    C     C#C     C        G      B7     Em
G|--------------------------------------------------------7h9-9-|
D|----------------------------------------------------7h9-------|
A|-4--3-33-33-33-4-3-33-33-33-3--------2-22-2-7-77-77-----------|
E|------------------------------3-33-3--------------------------|

 Rueda profundo...
   C               A7                  D   C   D7
G|------------------3-6-9-12-9---------------------|
D|---------------2-5----------11-8-----------------|
A|-3-33-33-33-3-4------------------9-7-5-5-3-3-5---|
E|-------------------------------------------------|

  La noche se amortigua...
     G       B7        Em        C     C#     D            D  C
G|-------------------------------------------------------------------|
D|-------------------------2-----------------------------------------|
A|----------2--22--------------2-3--3-4-4-5--55-3h4-5-55---5--3--33-3|
E|-3-33-3-5-------3-2-0-00---5---------------------------3--3--------|

   G        C       G       D7
G|-------------------------------|
D|-------------------------------|
A|--------2-3333-2-------3-4-5---|
E|-3333-5----------5-3--3--------|

SOLO
  G     B7           Em       C     C#         D               D   C
G|------------------------------------------------------------------------|
D|--------------9---------------------------------------------------------|
A|----------2-2/9--9-5-7--77----2-3--3-4--4-5--55-3h4-5--55----5---3--33-3|
E|-3-33-3-5-------------------5------------------------------3---3--------|

    G        C       G       D7
G|-------------------------------|
D|-------------------------------|
A|--------2-3333-2-------3-4-5---|
E|-3333-5----------5-3--3--------|

CORO

El moño azul....        Le prende al pecho...
   C# C    C     C#C     C        G      B7     Em
G|--------------------------------------------------------7h9-9-|
D|----------------------------------------------------7h9-------|
A|-4--3-33-33-33-4-3-33-33-33-3--------2-22-2-7-77-77-----------|
E|------------------------------3-33-3--------------------------|

 Rueda profundo...
   C               A7                  D   C   D7
G|------------------3-6-9-12-9---------------------|
D|---------------2-5----------11-8-----------------|
A|-3-33-33-33-3-4------------------9-7-5-5-3-3-5---|
E|-------------------------------------------------|

    Al rojo de la tarde...
 G     B7           Em       C     C#       D
G|--------------------------------------------|
D|--------------9-----------------------------|
A|----------2-2/9--9-5-7--77----2-3--3-4--4-5-|
E|-3-33-3-5-------------------5---------------|

FINAL

    G        C       G
G|--------------------------|
D|--------------------------|
A|--------2-3333-2----------|
E|-3333-5----------5-3------|

G|----------------------------|
D|-5-3------------------------|
A|-----5-4-2------------------|
E|-----------5--------3-------|

            
            
Suggest correction
Creating personal tab
Creating personal tab
You can edit any tab online and save it as your Personal.

You can edit, replace or remove any tab part or add personal notes – all changes will be seen only by you.

Personal tabs can be accessed anytime from any device, even offline.
Learn more »
Give kudos to tab author, rate the tab!
1 2 3 4 5
comments
print report bad tab
guest
Wanna post a correction for this tab? Suggest correction