Oops, an error
Loading. Please wait.

Al Rojo De La Tarde tab

177 views 3 this week
no commentswrite comment
1 2 3 4 5
3 more votes to show rating
add to favorites
×
Save as Personal and add changes to this tab that will be seen only by you. Learn more ›
×
You can save this tab as Personal to edit and correct it or add notes. All changes will be seen only by you. Learn more »
launch autoscroll
font size
0
reset
how to read this tab
guitar tuner
edit
Autoscroll
slow
fast
+/-
esc
set tempo
stop
Hola! Ahora es la segunda cancion 
que envio ojala les guste no es muy 
conocida pero es un buen blues. Por 
cierto si alguien tiene mp3 de real 
reportense conmigo es que aqui en 
Morelia casi no hay donde comprar 
material de real de 14. 
Gracias. 
( Eder alias Palencia)

En esta ocasion mando el requinto, pues el acompañamiento ya me lo ganaron.

Requinto 1. Intro.
                    b.              p.
e-I-----------------------------------------------------------------
b-I--------------------5--7--5--5-----------------------------------
g-I-----5-7-5-7(9)-7(9)--------7--7--5--7-5--5----------------------
d-I-5-7-------------------------------------7--7-5-7-5--5-----------
a-I----------------------------------------------------7--7-6-5-----
E-I-------------------------------------------------------------8-5-


    b.                   s/
---------------------------------------
----15(17)-(17)--15--14--5--17-14-15---
---------------------------------------
---------------------------------------
---------------------------------------
---------------------------------------

----------12----12--10---------19--15--19--17--19--20--22--
-13----13----13--------12----------------------------------
----12--------------------12-------------------------------
-----------------------------------------------------------
-----------------------------------------------------------
-----------------------------------------------------------


Solo 2. Intermedio.
             b.
e-I--------------------------------------------
b-I-------------------------------------12-----
g-I-------12-14(16)(14)12----12--14--12----12--
d-I-12-14-----------------14-------------------
a-I--------------------------------------------
E-I--------------------------------------------

--------15-17-19-17-15----15-17-19-17-15----15-17-15-
--15-17----------------17----------------17----------
-----------------------------------------------------
-----------------------------------------------------
-----------------------------------------------------
-----------------------------------------------------
  b.
-------------------------------
-------------------------------
-14-(16)-14-12-----------------
---------------14-12----12-14--
---------------------14--------
-------------------------------

------------------------------------------------10-12-14-15-15--
-------------------------5-7-8---------10-12-13-----------------
---------4-5-7-----4-5-7-------9-11-12--------------------------
---4-5-7--------7-----------------------------------------------
-7--------------------------------------------------------------
----------------------------------------------------------------

-12-17-15-------------------I----------------------------------------
----------17-15----------15-I-------15----15-17-15-17(19)-17-15---15-
----------------16-14-16----I-14-16----16-----------------------16---
----------------------------I----------------------------------------
----------------------------I----------------------------------------
----------------------------I----------------------------------------

--------------------------------
--------------------------------
-------12----12---------12---14-
-12-14----14-----12--14---14----
--------------------------------
--------------------------------

------------------------------------------
------------------------------------------
-------12----12---------14/16-14-12----12-
-12-14----14----14--12--------------14----
------------------------------------------
------------------------------------------

--------------------------------------------------
--------------------------------------------------
--7/9/7-------------------------------------------
--------9-7-----------7--9--7---------------------
------------10--7--10----------10-10----10-9-8----
--------------------------------------------------


Bueno aqui esta el requinto ojala la 
disfruten espero mandar otras ya tengo 
recientes pero la flojera jejejeje, 
tengo tambien el requinto de azul de 
real de 14, espero mandarlo pronto,
 bueno si alguien se quiere
 comunicar mi Icq es 45330827.

            
            
Suggest correction
Creating personal tab
Creating personal tab
You can edit any tab online and save it as your Personal.

You can edit, replace or remove any tab part or add personal notes – all changes will be seen only by you.

Personal tabs can be accessed anytime from any device, even offline.
Learn more »
Give kudos to tab author, rate the tab!
1 2 3 4 5
comments
print report bad tab
guest
Wanna post a correction for this tab? Suggest correction