Oops, an error
Loading. Please wait.

Aprils Song Tab

version 2
version 2

Whole song

  • This tab includes all 3 guitars. The lead guitar does not use a capo.

Interactive

91 views 9 this week
1 commentread comment
1 2 3 4 5
1 last vote to show rating
add to favorites
launch autoscroll
font size
0
reset
how to read this tab
guitar tuner
Autoscroll
slow
fast
+/-
esc
set tempo
stop
Help us to improve Ultimate-Guitar.com Take our survey!
×
Author
Difficulty
Capo
intermediate
2nd fret
About this tab version
This tab includes all 3 guitars. The lead guitar does not use a capo. Was this info helpful? Yes No
Real Estate - April's Song
Track 4 from the album "Atlas" (2014 Domino Recording Co Ltd).

Tabbed by Isaac Murguia, October 2016.
Originally uploaded to Ultimate-Guitar.com
Contact: www.youtube.com/user/Goadiroth

CAPO on 2nd Fret *** guitar 3 does not use a capo
Tabbed relative to capo
Listen to song for strumming patterns

Guitar 1 = right channel, electric rhythm
Guitar 2 = left channel, acoustic rhythm
Guitar 3 = center, electric lead

[INTRO]
  Guitar 1        x2                                                                 x2
e|---------------------------------|---------------------------------|---------------------------------|
B|-----1-----1---------1-----1-----|-----3-----3---------3-----3---1-|-----1-----1---------1-----1-----|
G|---0-----0-----0---0-----0-----0-|---0-----0-----0---0-----0-------|---2-----2-----2---2-----2-----2-|
D|-2-----2-----2---2-----2-----2---|-3-----3-----3---3-----3-----3---|-3-----3-----3---3-----3-----3---|
A|---------------------------------|---------------------------------|---------------------------------|
E|---------------------------------|---------------------------------|---------------------------------|
  Guitar 2       x2                                                                  x2
e|-0---------------0---------------|-0---------------0---------------|-0---------------0---------------|
B|-1---------------1---------------|-3---------------3---------------|-1---------------1---------------|
G|-0---------------0---------------|-0---------------0---------------|-2---------------2---------------|
D|-2---------------2---------------|-3---------------3---------------|-3---------------3---------------|
A|-3---------------3---------------|-x---------------x---------------|-3---------------3---------------|
E|---------------------------------|-3---------------3---------------|---------------------------------|

[VERSE]
  Guitar 1        x2                                                                 x2
e|---------------------------------|---------------------------------|---------------------------------|
B|-----1-----1---------1-----1-----|-----3-----3---------3-----3-----|-----1-----1---------1-----1-----|
G|---0-----0-----0---0-----0-----0-|---0-----0-----0---0-----0-----0-|---2-----2-----2---2-----2-----2-|
D|-2-----2-----2---2-----2-----2---|-3-----3-----3---3-----3-----3---|-3-----3-----3---3-----3-----3---|
A|---------------------------------|---------------------------------|---------------------------------|
E|---------------------------------|---------------------------------|---------------------------------| x2
  Guitar 2       x2                                                                  x2
e|-0---------------0---------------|-0---------------0---------------|-0---------------0---------------|
B|-1---------------1---------------|-3---------------3---------------|-1---------------1---------------|
G|-0---------------0---------------|-0---------------0---------------|-2---------------2---------------|
D|-2---------------2---------------|-3---------------3---------------|-3---------------3---------------|
A|-3---------------3---------------|-x---------------x---------------|-3---------------3---------------|
E|---------------------------------|-3---------------3---------------|---------------------------------| x2
  Guitar 3       x2                                                                  x2
e|---------------------------------|---------------------------------|---------------------------------|
B|---------------------------------|--------10--------------10-------|------------0---------------0----|
G|-11h12p11-14-----11h12p11-14-----|-9h11p9----11----9h11p9----11----|-7h9p7-9/11------7h9p7-9/11------|
D|-------------12--------------12--|---------------------------------|---------------------------------|
A|---------------------------------|---------------------------------|---------------------------------|
E|---------------------------------|---------------------------------|---------------------------------| x2

[CHORUS]
  Guitar 1
e|---------------------------------|---------------------------------|
B|-----1-----1---------3-----3-----|-----1-----1---------1-----1-----|
G|---0-----0-----0---0-----0-----0-|---2-----2-----2---2-----2-----2-|
D|-2-----2-----2---3-----3-----3---|-3-----3-----3---3-----3-----3---|
A|---------------------------------|---------------------------------|
E|---------------------------------|---------------------------------| x4
  Guitar 2
e|-0---------------0---------------|-0---------------0---------------|
B|-1---------------3---------------|-1---------------1---------------|
G|-0---------------0---------------|-2---------------2---------------|
D|-2---------------3---------------|-3---------------3---------------|
A|-3---------------x---------------|-3---------------3---------------|
E|-----------------3---------------|---------------------------------| x4
  Guitar 3
e|-------2-0--------0--------------------------------------|
B|-----3------0h2-2---2------0-----0-----0---0-----0-----0-|
G|---2-------------------/4----4-----4---------4-----4-----|
D|-------------------------------5-----5---------5-----5---|
A|-0-------------------------------------------------------|
E|---------------------------------------------------------|

e|-------2-0--------0-------------------------------------|
B|-----3------0h2-2---2-----0-----0-----0---0-----0-----0-|
G|---2-------------------/4---4-----4---------4-----4-----|
D|-0----------------------------5-----5---------5-----5---|
A|--------------------------------------------------------|
E|--------------------------------------------------------| x2

e|-------2-0--------0-------------------------------------|
B|-----3------0h2-2---2-----0-----0-----0---0-----0-------|
G|---2-------------------/4---4-----4---------4-----4-----|
D|-0----------------------------5-----5---------5-----5---|
A|--------------------------------------------------------|
E|--------------------------------------------------------|

[POST-CHORUS]
  Guitar 1
e|-0----------0---------0----------0------|
B|-1----------1---------1----------1------|
G|-2----------2---------0----------2------|
D|-2----------3---------2----------3------|
A|-0----------3---------3----------3------|
E|----------------------------------------| x2
  Guitar 2
e|-0----------0---------0----------0------|
B|-1----------1---------1----------1------|
G|-2----------2---------0----------2------|
D|-2----------3---------2----------3------|
A|-0----------3---------3----------3------|
E|----------------------------------------| x2
  Guitar 3
e|----------------------------------------|
B|-12-------------------10-12-------------|
G|----11------9-11------------11-9-11-----|
D|-------12-9------12-9-------------------|
A|----------------------------------------|
E|----------------------------------------| x2

[BREAK 1]
  Guitar 1       d du udu / d du udu **strumming pattern
e|-0------0------0------0------|
B|-0------1------1------1------|
G|-0------2------0------0------|
D|-2------2------2------2------|
A|-2------0------3------3------|
E|-0---------------------------|
  Guitar 2       d du udu / d du udu **strumming pattern
e|-0------0------0------0------|
B|-0------1------1------1------|
G|-0------2------0------0------|
D|-2------2------2------2------|
A|-2------0------3------3------|
E|-0---------------------------|
  Guitar 3
e|-9------7--------------------|
B|-9------7------7-------------|
G|-9------7------7-------------|
D|-11-----9------7-------------|
A|-9------7------5-------------|
E|-----------------------------|

Repeat VERSE x1
Repeat CHORUS
Repeat POST-CHORUS

[BREAK 2]
  Guitar 1                                                            x2
e|-0------0------0------0------|-0------0------0------|---------------------------------|
B|-0------1------1------1------|-0------1------1------|-----1-----1---------1-----1-----|
G|-0------2------0------2------|-0------2------2------|---0-----0-----0---0-----0-----0-|
D|-2------2------2------3------|-2------2------2------|-2-----2-----2---2-----2-----2---|
A|-2------0------3------3------|-2------0------0------|---------------------------------|
E|-0---------------------------|-0--------------------|---------------------------------|
  Guitar 2                                                            x2
e|-0------0------0------0------|-0------0------0------|-0---------------0---------------|
B|-0------1------1------1------|-0------1------1------|-1---------------1---------------|
G|-0------2------0------2------|-0------2------2------|-0---------------0---------------|
D|-2------2------2------3------|-2------2------2------|-2---------------2---------------|
A|-2------0------3------3------|-2------0------0------|-3---------------3---------------|
E|-0---------------------------|-0--------------------|---------------------------------|
  Guitar 3
e|-9------7--------------------|-9------7------7------|---------------------------------|
B|-9------7------7------1------|-9------7------7------|-7-------------------------------|
G|-9------7------7------2------|-9------7------7------|-7-------------------------------|
D|-11-----9------7------3------|-11-----9------9------|-7-------------------------------|
A|-9------7------5------3------|-9------7------7------|-5-------------------------------|
E|-----------------------------|----------------------|---------------------------------|

Repeat CHORUS

End. Please rate! :D
Suggest correction
Give kudos to tab author, rate the tab!
1 2 3 4 5
comments
print report bad tab
1 comment total.
+1 reply
DON CZARSKI [tm] 23,702 Oct 06, 2016 10:45 PM

Very nice video of you playing this song ...and an excellent tab... 5 stars for sure...

guest
You may want to rate the tab now too:
select rating
Wanna post a correction for this tab? Suggest correction