Oops, an error
Loading. Please wait.

Darling intro tab

10,393 views 339 this week
7 commentsread comments
1 2 3 4 5
x 36
add to favorites
×
Save as Personal and add changes to this tab that will be seen only by you. Learn more ›
×
You can save this tab as Personal to edit and correct it or add notes. All changes will be seen only by you. Learn more »
launch autoscroll
font size
0
reset
how to read this tab
guitar tuner
edit
Autoscroll
slow
fast
+/-
esc
set tempo
stop
[Intro]
    F                                          C        G
E|--------------0--------|-----------------------|----------------|
B|--------1--------3---1-|-0---------------------|----------------|
G|-----2-----2-------2---|----2--0---------------|-----0--------0-|
D|--3--------------------|------------3--2--0----|-2--------0-----| x4
A|-----------------------|---------------------3-|----------------|
E|-----------------------|-----------------------|-------3--------|

(add doubled guitar)
    F                                          C        G
E|--------------0--------|-----------------------|----------------|
B|--------1--------3---1-|-0---------------------|----------------|
G|-----2-----2-------2---|----2--0---------------|-----0--------0-|
D|--3--------------------|------------3--2--0----|-2--------0-----| x4
A|-----------------------|---------------------3-|----------------|
E|-----------------------|-----------------------|-------3--------|


Guitar 1:
    F                                          C        G
E|--------------0--------|-----------------------|----------------|
B|--------1--------3---1-|-0---------------------|----------------|
G|-----2-----2-------2---|----2--0---------------|-----0--------0-|
D|--3--------------------|------------3--2--0----|-2--------0-----| x4
A|-----------------------|---------------------3-|----------------|
E|-----------------------|-----------------------|-------3--------|

Guitar 2:
E|-----------------|-----------------|---------3-------|
B|--1----1----1--3-|-1----1-----1--3-|-1--3/5-----5\3--|
G|-----2----2------|----2----2-------|-----------------|
D|-----------------|-----------------|-----------------| x4
A|-----------------|-----------------|-----------------|
E|-----------------|-----------------|-----------------|

            
            
Suggest correction
Creating personal tab
Creating personal tab
You can edit any tab online and save it as your Personal.

You can edit, replace or remove any tab part or add personal notes – all changes will be seen only by you.

Personal tabs can be accessed anytime from any device, even offline.
Learn more »
comments
print report bad tab
7 comments total. Showing first comments.
0 reply
Spaghetti_Fear 10 Mar 27, 2017 09:51 PM

Sounds spot on. Nice job!

0 reply
tg4414 62 Apr 23, 2017 08:15 PM, edited on April 24 2017, 12:15 am

Flawless tab. Thanks dude!If you want to add some of the other portions of the song into this tab, I have some of them here. May not be 100% correct.e|-12+-----------|B|-----12+--13~--|G|---------------|D|---------------|A|---------------|E|---------------|e|-------------0----------------------------------------------------|B|--------1--------3----1--1/5--3--1--------------------------------|G|-----2----2--------2---------------2-----------------0---------0--|D|--3----------------------------------3--2--0------2---------0-----|A|-----------------------------------------------3------------------|E|---------------------------------------------------------3--------|e|--------------0--------------0--------3--------|B|-1---1---1--3---1---1---1--3---1--3/5----5\3---|G|---2---2----------2---2------------------------| X4D|-----------------------------------------------|A|-----------------------------------------------|E|-----------------------------------------------|e|--------7~-----------8~--|B|--5--8--------6--10------|G|-------------------------| X4D|-------------------------|A|-------------------------|E|-------------------------|

+6 reply
tg4414 62 Apr 23, 2017 08:19 PM

My comment got formatted incorrectly. Here it is again.
e|-12+-----------|
B|---12+-13~-----|
G|---------------|
D|---------------|
A|---------------|
E|---------------|

e|-------------0----------------------------------------------------|
B|--------1--------3----1--1/5--3--1--------------------------------|
G|-----2----2--------2---------------2-----------------0---------0--|
D|--3----------------------------------3--2--0------2---------0-----|
A|-----------------------------------------------3------------------|
E|---------------------------------------------------------3--------|

e|--------------0--------------0--------3--------|
B|-1---1---1--3---1---1---1--3---1--3/5----5\3---|
G|---2---2----------2---2------------------------| X4
D|-----------------------------------------------|
A|-----------------------------------------------|
E|-----------------------------------------------|

e|--------7~-----------8~--|
B|--5--8--------6--10------|
G|-------------------------| X4
D|-------------------------|
A|-------------------------|
E|-------------------------|

guest
Wanna post a correction for this tab? Suggest correction