Oops, an error
Loading. Please wait.

Green Aisles chords

18,236 views 27 this week
2 commentsread comments
1 2 3 4 5
x 11
add to favorites
×
Save as Personal and add changes to this tab that will be seen only by you. Learn more ›
×
You can save this tab as Personal to edit and correct it or add notes. All changes will be seen only by you. Learn more »
launch autoscroll
font size
0
reset
transpose
0
reset
display chords
guitar tuner
edit
Autoscroll
slow
fast
+/-
esc
set tempo
stop
Author
Difficulty
Strumming
There is no strumming pattern for this song yet. and get +5 IQ
Green Aisles ~ Real Estate
from the album "Days"

Tuning: Standard

Chords:
|-0---0---0-|
|-1---3---1-|
|-2---4---0-|
|-3---5---2-|
|-3---5---3-|
|-x---x---x-|
  F   G   C

Verse:
F                                      G
Under dormant trees, under bright-lit skies
F                                           G
Mountains of maple leaves standing side by side
F                                             G
The phone lines, the street lights led me to you
F                                         G
And if you just sit tight, I'll be there soon

Chorus:
G                 F
All those wasted miles
G                  F
All those aimless drives through green aisles
G                  F
Our careless life style
C         G           F
It was not so unwise, no

I rode right past the train trestle, ancient as a stone
Blacked out on a bicycle, I made my way back home
The houses were humming all through the night
And winter was coming, but that was alright

All those wasted miles
All those aimless drives through green aisles
Our careless life style
It was not so unwise, no

The phone lines, the street lights led me to you
And if you just sit tight, I'll be there soon

All those wasted miles
All those aimless drives through green aisles
Our careless life style
It was not so unwise, no

            
            
Suggest correction
Creating personal tab
Creating personal tab
You can edit any tab online and save it as your Personal.

You can edit, replace or remove any tab part or add personal notes – all changes will be seen only by you.

Personal tabs can be accessed anytime from any device, even offline.
Learn more »
comments
print report bad tab
2 comments total.
0 reply
bonavida 37 Mar 08, 2013 05:01 AM

Anyone knows the 2nd guitar picking?

0 reply
John_Squire 10 Dec 08, 2015 03:11 PM

F
e|------------------------------------------|
B|----1---1----1---1----1---1----1---1------|
G|------2--------0--------2--------0--------| REPEAT till 1:03, etc.
D|--3--------0--------3--------0------------|
A|------------------------------------------|
E|------------------------------------------|

e|--------0----------1--0---------0---------|
B|----1-----1---1-----------2h3-------------|
G|--2---2-----2---2---2---2-----2-----------| REPEAT till 1:03, etc.
D|------------------------------------------|
A|------------------------------------------|
E|------------------------------------------|

guest
You may want to rate the tab now too:
select rating
Wanna post a correction for this tab? Suggest correction