Oops, an error
Loading. Please wait.

Serve The Song tab

100 views 18 this week
no commentswrite comment
1 2 3 4 5
3 more votes to show rating
add to favorites
×
Save as Personal and add changes to this tab that will be seen only by you. Learn more ›
×
You can save this tab as Personal to edit and correct it or add notes. All changes will be seen only by you. Learn more »
launch autoscroll
font size
0
reset
how to read this tab
guitar tuner
edit
Autoscroll
slow
fast
+/-
esc
set tempo
stop
About this tab version
Tab to go along with danmcg95's chords. Was this info helpful? Yes No
[Intro]
Wah(?) on the chords, and the later half of the intro is played underneath the main chords
e|---2-0----------0-0-0-0-|-0-0-0-0---------7--4---4--2--0---|---7--4--4--2--0--|
B|---2---2-0------2-2-2-2-|-2-2-2-2--------------------------|------------------|
G|---2-------2----1-1-1-1-|-1-1-1-1--------------------------|------------------|
D|---0------------2-2-2-2-|-2-2-2-2--------------------------|------------------|
A|----------------0-0-0-0-|-0-0-0-0--------------------------|------------------|
E|----------------0-0-0-0-|-0-0-0-0--------------------------|------------------|

|

e|----7--4---4--2--0---|---7--4---4--2--0--------------------------------------|
B|---------------------|-------------------------------------------------------|
G|---------------------|-------------------------------------------------------|
D|---------------------|-------------------------------------------------------|
A|---------------------|-------------------------------------------------------|
E|---------------------|-------------------------------------------------------|

[Verse]

"Why do you go through all the trouble..."

e|----7--4----------------------------|--5--2---------------------------------|
B|---------5-----------------5--------|---------2-----------2-----------------|
G|-----------6--4-----2--4--6----6-4--|--------------4--2--4----1-------------|
D|------------------------------------|---------------------------------------|
A|------------------------------------|---------------------------------------|
E|------------------------------------|---------------------------------------|

e|----7--4----------------------------|--5--2-------------------0-------------|
B|---------5-----------------5--------|---------2-----------2---2-------------|
G|-----------6--4-----2--4--6----6-4\2|--------------4--2--4----1-------------|
D|------------------------------------|-------------------------2-------------|
A|------------------------------------|-------------------------0-------------|
E|------------------------------------|-------------------------0-------------|

[Chorus]- Guitarist in live videos plays up the neck, but these are the same notes

" I Woke Up Sunday Morning...
e|---------------------4--------|-------5---7--7/9--4~--4h7p4p0---------------|
B|------5--------7-----------5--|---5/7---7---------------------2-------------|
G|--4h6------4h6---4h6---4h6----|---------------------------------------------|
D|------------------------------|---------------------------------------------|
A|------------------------------|---------------------------------------------|
E|------------------------------|---------------------------------------------|

e|---------------------4--------|-------5---7--7/9--4~--4h7p4p0---------------|
B|------5--------7-----------5--|---5/7---7---------------------2-------------|
G|--4h6------4h6---4h6---4h6----|---------------------------------------------|
D|------------------------------|---------------------------------------------|
A|------------------------------|---------------------------------------------|
E|------------------------------|---------------------------------------------|

[Solo]
Our backing guitar plays this while the lead guitar gets jammy

e|------0---------0----------0---------0---|-------0---------0---------0---------0--|
B|----5---5-----7---7------9---9-----7---0-|-----5---5-----7---7-----9---9-----7---0|
G|--6---------7----------9---------7-------|---6---------7---------9---------7------|
D|-----------------------------------------|----------------------------------------|
A|-----------------------------------------|----------------------------------------|
E|-----------------------------------------|----------------------------------------|

e|------0---------0----------0---------0---|-------0----------0---------0--------0---|
B|----5---5-----7---7------9---9-----10--10|-----12--12-----10--10----12--12---10--10|
G|--6---------7----------9---------11------|---13---------11--------13-------11------|
D|-----------------------------------------|-----------------------------------------|
A|-----------------------------------------|----------------------------------------=|
E|-----------------------------------------|----------------------------------------=|

This is where the lead guitar goes into heavy effects, so returning to the chords is a good option, 
or you can repeat the backing track

[Outro]
Once more...
e|----7--4----------------------------|--5--2---------------------------------|
B|---------5-----------------5--------|---------2-----------2-----------------|
G|-----------6--4-----2--4--6----6-4/2|--------------4--2--4----1~------------|
D|------------------------------------|---------------------------------------|
A|------------------------------------|---------------------------------------|
E|------------------------------------|---------------------------------------|

e|---5-2---------3------------------------------------------------------------|
B|---2----2-0----0------------------------------------------------------------|
G|---2--------2--0------------------------------------------------------------|
D|---0-----------0------------------------------------------------------------|
A|---------------2------------------------------------------------------------|
E|---------------3------------------------------------------------------------|


************************************

| h   Hammer-on
| p   Pull-off
| /   Slide up
| \   Slide down
| ~   Vibrato

************************************

            
            
Suggest correction
Creating personal tab
Creating personal tab
You can edit any tab online and save it as your Personal.

You can edit, replace or remove any tab part or add personal notes – all changes will be seen only by you.

Personal tabs can be accessed anytime from any device, even offline.
Learn more »
Give kudos to tab author, rate the tab!
1 2 3 4 5
comments
print report bad tab
guest
You may want to rate the tab now too:
select rating
Wanna post a correction for this tab? Suggest correction