Oops, an error
Loading. Please wait.

Talking Backwards Tab

version 1
version 1

Intro

Whole song

17,625 views 18 this week
5 commentsread comments
1 2 3 4 5
x 13
add to favorites
launch autoscroll
font size
0
reset
how to read this tab
guitar tuner
Autoscroll
slow
fast
+/-
esc
set tempo
stop
Help us to improve Ultimate-Guitar.com Take our survey!
×
Difficulty
Capo
novice
5th fret
Only worked this bit out so far - will post a full version if I work that out.
New single from the brilliant band Real Estate.


-------------------------------------------------------------------------------
                             Real Estate - 'Talking Backwards'
-------------------------------------------------------------------------------
Tabbed by: Declan

Tuning: EADGBe

CAPO 5

(Listen to the song for exact rhythm)

  Fmaj7   Am7     ?      ?     C

e|-----0-----0------0-----0----0--------|
B|-----1-----1------1-------1--1--------|
G|---2-----0------0-----0------0--------|
D|-3-----2------0-----3--------2--------|
A|-----------------------------3--------|
E|--------------------------------------|

Fingerpick the first four chords, then strum on the C chord, occasionally taking your 
finger off the B string to make it open
Suggest correction
comments
print report bad tab
5 comments total. Showing first comments.
+1 reply
MayorMcJeez 521 Mar 31, 2014 06:18 PM, edited at 10:55 pm

Here's the melodic riff played over the chords (relative to capo on 5):/ = pull offe|-----------------------|------------------------|B|-6/5--3----------------|-6/5--3-----------------|G|---------0-5-4-5-2-----|---------0-5-4-5----4-5-|D|-------------------3-2-|------------------0-----|A|-----------------------|------------------------|E|-----------------------|------------------------|

+2 reply
MayorMcJeez 521 Mar 31, 2014 11:03 PM

Previous comment got screwed up. Here's the main riff played over these chords (relative to capo on 5):

/ = pull off

e|------------------------|------------------------|
B|-6/5--3-----------------|-6/5--3-----------------|
G|---------0-5-4-5-2------|---------0-5-4-5-0--4-5-|
D|--------------------3-2-|------------------------|
A|------------------------|------------------------|
E|------------------------|------------------------|

0 reply
rasgibson 350 May 22, 2014 12:54 PM

Have you managed to figure out the whole song yet?

guest
You may want to rate the tab now too:
select rating
Wanna post a correction for this tab? Suggest correction