Oops, an error
Loading. Please wait.

Anchor Down tab

version 2
version 2

Whole song

  • First tab of anchor down. its a super easy fun son... Show more
64 views 1 this week
no commentswrite comment
1 2 3 4 5
2 more votes to show rating
add to favorites
×
Save as Personal and add changes to this tab that will be seen only by you. Learn more ›
×
You can save this tab as Personal to edit and correct it or add notes. All changes will be seen only by you. Learn more »
launch autoscroll
font size
0
reset
how to read this tab
guitar tuner
edit
Autoscroll
slow
fast
+/-
esc
set tempo
stop
About this tab version
First tab of anchor down. its a super easy fun song to play Played in Drop C Sharp Enjoy. Was this info helpful? Yes No
Tuning: Drop C# 
By: Kyle Kraneman 
Insta: @1975ky

[Intro]
e|-------------------x----------------------------------------------x---------|
B|-------------------x----------------------------------------------x---------|
G|-------------------x-------7-6-4-2--------------------------------x---------|
D|-44-2-7-00000000---x------------------------2-------2--0---(x2)---x---------|
A|-44-2-7-00000000---x--------------------44----4---44--------------x---------|
E|-44-2-7-00000000---x----------------------------------------------x---------|

[Verse]
e|---------------------------------------------------------------------------|
B|---------------------------------------------------------------------------|
G|---------------------------------------------------------------------------|
D|-77-0000000000-77-0000000000-22-77-0000000000-44-2-7-00000000--------------|
A|-77-0000000000-77-0000000000-22-77-0000000000-44-2-7-00000000------(x2)----|
E|-77-0000000000-77-0000000000-22-77-0000000000-44-2-7-00000000--------------|

[Pre-Chorus]
e|---------------------------------------------------------------------------|
B|---------------------------------------------------------------------------|
G|---------------------------------------------------------------------------|
D|-777777777777777777777777-----00-------------------------------------------|
A|------------------------------00-------------------------------------------|
E|------------------------------00-------------------------------------------|
   xxxxxxxxxxxxxx

[Chorus]
e|---------------------------------------------------------------------------|
B|---------------------------------------------------------------------------|
G|---------------------------------------------------------------------------|
D|-77777777-99999999-00000000000000-77777777-22222222-00000000000000---------|
A|-77777777-99999999-00000000000000-77777777-22222222-00000000000000---(x2)--|
E|-77777777-99999999-00000000000000-77777777-22222222-00000000000000---------|

e|---------------------------------------------------------------------------|
B|---------------------------------------------------------------------------|
G|---------------------------------------------------------------------------|
D|-00000-2222-7--------------------------------------------------------------|
A|-00000-2222-7--------------------------------------------------------------|
E|-00000-2222-7--------------------------------------------------------------|


[Verse 2]
e|--------------------------------------------------------------------------|
B|--------------------------------------------------------------------------|
G|--------------------------------------------------------------------------|
D|----------------2--------2-0---4---2---0000-------------------------------|
A|-------------44---4---44-------4---2---0000-------------------------------|
E|-------------------------------4---2---0000-------------------------------|

e|-------------------------------------------------------------0-------------|
B|-------------------------------------------------------------0-------------|
G|-------------------------------------------------------------0-------------|
D|-0000000-7777777-44444444-2222222-0000000--7777777-2-----------------------|
A|-0000000-7777777-44444444-2222222-0000000--7777777-2-----------------------|
E|-0000000-7777777-44444444-2222222-0000000--7777777-2-----------------------|
    xxxxxx  xx      xxxxxxx  xx      xxxxxx   xx


e|-----------------------------------------------------------------------------------|
B|-----------------------------------------------------------------------------------|
G|-----------------------------------------------------------------------------------|
D|-0000000-7777777-44444444-2222222-0000000--7777777-22222--xxxxxxxx-777-xxxxxxx-77--|
A|-0000000-7777777-44444444-2222222-0000000--7777777-22222--xxxxxxxx-777-xxxxxxx-77--|
E|-0000000-7777777-44444444-2222222-0000000--7777777-22222--xxxxxxxx-777-xxxxxxx-77--|
    xxxxxx  xx      xxxxxxx  xx      xxxxxx   xx      xxxx

[Chorus]
e|---------------------------------------------------------------------------|
B|---------------------------------------------------------------------------|
G|---------------------------------------------------------------------------|
D|-77777777-99999999-00000000000000-77777777-22222222-00000000000000---------|
A|-77777777-99999999-00000000000000-77777777-22222222-00000000000000---(x2)--|
E|-77777777-99999999-00000000000000-77777777-22222222-00000000000000---------|

e|---------------------------------------------------------------------------|
B|---------------------------------------------------------------------------|
G|---------------------------------------------------------------------------|
D|-0-0-0-2-------------------------------------------------------------------|
A|-0-0-0-2-------------------------------------------------------------------|
E|-0-0-0-2-------------------------------------------------------------------|

[Bridge]
e|---------------------------------------------------------------------------|
B|---------------------------------------------------------------------------|
G|---------------------------------------------------------------------------|
D|----------------------------------------------------------xxxx-------------|
A|----------------------------------------------------------xxxx-------------|
E|000-77777777-000-77777777-444-77777777-444-777-000-77777--xxxx-------------|

e|---------------------------------------------------------------------------|
B|---------------------------------------------------------------------------|
G|---------------------------------------------------------------------------|
D|000-77777777-000-77777777-444-77777777-444-777-000-77777777----------------|
A|000-77777777-000-77777777-444-77777777-444-777-000-77777777----(x2)--------|
E|000-77777777-000-77777777-444-77777777-444-777-000-77777777----------------|

e|--------------------------0-------------------------------------------------|
B|--------------------------0-------------------------------------------------|
G|--------------------------0-------------------------------------------------|
D|-777777-999999-0000---------------------------------------------------------|
A|-777777-999999-0000---------------------------------------------------------|
E|-777777-999999 0000---------------------------------------------------------|
    xxxx   xxxx

[Chorus]

e|---------------------------------------------------------------------------|
B|---------------------------------------------------------------------------|
G|---------------------------------------------------------------------------|
D|-77777777-99999999-00000000000000-77777777-22222222-00000000000000---------|
A|-77777777-99999999-00000000000000-77777777-22222222-00000000000000---(x2)--|
E|-77777777-99999999-00000000000000-77777777-22222222-00000000000000---------|

e|---------------------------------------------------------------------------|
B|---------------------------------------------------------------------------|
G|---------------------------------------------------------------------------|
D|-00000-22------------------------------------------------------------------|
A|-00000-22------------------------------------------------------------------|
E|-00000-22------------------------------------------------------------------|



************************************

| x  Dead note
 

************************************
Suggest correction
Creating personal tab
Creating personal tab
You can edit any tab online and save it as your Personal.

You can edit, replace or remove any tab part or add personal notes – all changes will be seen only by you.

Personal tabs can be accessed anytime from any device, even offline.
Learn more »
Give kudos to tab author, rate the tab!
1 2 3 4 5
comments
print report bad tab
guest
You may want to rate the tab now too:
select rating
Wanna post a correction for this tab? Suggest correction