Oops, an error
Loading. Please wait.

I Dont Love You Anymore Tab

11,559 views 51 this week
2 commentsread comments
1 2 3 4 5
x 9
add to favorites
launch autoscroll
font size
0
reset
how to read this tab
guitar tuner
Autoscroll
slow
fast
+/-
esc
set tempo
stop
Help us to improve Ultimate-Guitar.com Take our survey!
×
Author
Difficulty
Tuning
intermediate
D# G# C# F# A# D#
I DON'T LOVE YOU ANYMORE - Real Friends
Tabbed by: Chris Creguer
E-mail: ccreguer@gmail.com
Tuning: Half step down (Eb Ab Db Gb Bb Eb)

I'd highly recommend you check out this album (Maybe This Place Is The Same And We're Just Changing) 
if you haven't already.

Here's my guitar cover of this song: https://www.youtube.com/watch?v=b_zxDy64gi0

 GUITAR 1:
 [Intro] (0:00)
D#|---------------------------------------------------------------------------|
A#|---------------------------------------------------------------------------|
F#|--2-------------------2----------------------------------------------------|
C#|--2-let ring----------2----------------------------------------------------|
G#|--0-------------------0----------------------------------------------------|
D#|---------------------------------------------------------------------------|

 [Verse] (0:05)
D#|---------------------------------------------------------------------------|
A#|---------------------------------------------------------------------------|
F#|--------2--------2-----2--------2--------2-----2---------------------------|
C#|--------2--------2-----2--------2--------2-----2--------2--------2-----2---|
G#|--0--0-----0--0-----0-----0--0-----0--0-----0-----------2--------2-----2---|
D#|--------------------------------------------------0--0-----0--0-----0------|
                                                                                x4

D#|---------------------------------------------------------------------------|
A#|---------------------------------------------------------------------------|
F#|--------6--------6-----6---------------------------------------------------| 
C#|--------6--------6-----6---------------------------------------------------|
G#|--4--4-----4--4-----4------------------------------------------------------|
D#|---------------------------------------------------------------------------|

 [Chorus] (0:29)
D#|---------------------------------------------------------------------------------|
A#|---------------------------------------------------------------------------------|
F#|----------------------6666666666666666--22222222--44444444-----------------------|
C#|--22222222--44444444--6666666666666666--22222222--44444444--444444444444444--xxx-|
G#|--22222222--44444444--4444444444444444--02222222--22222222--444444444444444--xxx-|
D#|--00000000--22222222----------------------------------------222222222222222--xxx-|

D#|-----------------------------------------------------------------------------------|
A#|-----------------------------------------------------------------------------------|
F#|-2-2-x-2-x-2222-x-2-x-2-2-x-2-x-2222-x-444-2-2-x-2-x-2222-x-2-x-2-2-x-2-x-2--444--2|
C#|-2-2-x-2-x-2222-x-2-x-2-2-x-2-x-2222-x-444-2-2-x-2-x-2222-x-2-x-2-2-x-2-x-2--444--2|
G#|-0-0-x-0-x-0000-x-0-x-0-0-x-0-x-0000-x-222-0-0-x-0-x-0000-x-0-x-0-0-x-0 x-0--222--0|
D#|-----------------------------------------------------------------------------------|

 [Post-chorus] (0:53)
D#|---------------------------------------------------------------------------|
A#|---------------------------------------------------------------------------|
F#|--2--2222--222-----------444-----------------------------------------------| x4
C#|--2--2222--222--2--2222--444-------on the last one ------------------------|
G#|--0--0000--000--2--2222--222-------land on an A and -----------------------|
D#|----------------0--0000------------let it ring-----------------------------|
        ****          ****

 [Verse 2] (1:16)
D#|---------------------------------------------------------------------------|
A#|---------------------------------------------------------------------------|
F#|--2--2--2------2-x-2---------------6--6--x--6--2--2222222222222222222222---|
C#|--2--2--2------2-x-2----2--2--2----6--6--x--6--2--2222222222222222222222---|
G#|--0--0--0------0-x-0----2--2--2----4--4--x--4--0--0000000000000000000000---|
D#|------------------------0--0--0--------------------------------------------|

 [Bridge] (1:57)
D#|---------------------------------------------------------------------------|
A#|---------------------------------------------------------------------------|
F#|--4444--2222222222222222-------------------22222222222222222---------------|
C#|--4444--2222222222222222-------------------22222222222222222---------------|
G#|--2222--0000000000000000--2--4--4/6--4--2--00000000000000000---------------|
D#|---------------------------------------------------------------------------|
     ****

D#|---------------------------------------------------------------------------|
A#|---------------------------------------------------------------------------|
F#|--4444444444444444--222222222222222--4444444444444444--22222222222222222-2-|
C#|--4444444444444444--222222222222222--4444444444444444--22222222222222222-2-|
G#|--2222222222222222--000000000000000--2222222222222222--00000000000000000-0-|
D#|---------------------------------------------------------------------------|

 GUITAR 2:
 [Intro] (0:02) 
D#|---------------------------------------------------------------------------|
A#|---------------------------------------------------------------------------|
F#|--2222222222222222222------------------------------------------------------|
C#|--2222222222222222222------------------------------------------------------|
G#|--0000000000000000000------------------------------------------------------|
D#|---------------------------------------------------------------------------|

 [Verse] (0:17)
D#|----------5--4--0----------------------------------------------------------|
A#|-------2-----------2-----2---------------5-------5-------------------------|
F#|--2h4-----------------4-----4p2-----2h4-----4h6----------------------------|
C#|---------------------------------------------------------------------------|
G#|---------------------------------------------------------------------------|
D#|---------------------------------------------------------------------------|

D#|----------5--4--0----------------------------------------------------------|
A#|-------2-----------2-----2---------------5-------5-----5-------------------|
F#|--2h4-----------------4-----4p2-----2h4-----4h6-----6-----6----------------|
C#|---------------------------------------------------------------------------|
G#|---------------------------------------------------------------------------|
D#|---------------------------------------------------------------------------|

 [Chorus] (0:29)
D#|--7--5--4--7--5--4--222--4444--00000000---------------------00070--5--4--0-|
A#|----------------------------------------22222222--44444444-----------------|
F#|---------------------------------------------------------------------------|
C#|---------------------------------------------------------------------------|
G#|---------------------------------------------------------------------------|
D#|---------------------------------------------------------------------------|

D#|----0--0--0--0---0--0--0--0--0---0--0--0--0---0--0---4--5--4--2------------|
A#|----9--5--7--5---9--5--7--5--7---9--5--7--5---9--5-------------------------|
F#|---------------------------------------------------------------------------| Strum pattern is easy 
C#|---------------------------------------------------------------------------| to figure out
G#|---------------------------------------------------------------------------|
D#|---------------------------------------------------------------------------|

 [Post-Chorus] (0:53)
D#|----------------4----------------------------------------------------------|
A#|----------5--------5--7--5---------------5---------------------------------|
F#|-------4-----4--------------4---------4-----4------------------------------|
C#|--4/6----------------------------4h6-----------6b7b6--4-----4--------------|
G#|---------------------------------------------------------7-----------------|
D#|---------------------------------------------------------------------------|

D#|----------------4----------------------------------------------------------|
A#|----------5--------5--7--5---------------5---------------------------------|
F#|-------4-----4--------------4---------4-----4------------------------------|
C#|--4/6----------------------------4h6-----------6b7b6--4-----4--------------|
G#|---------------------------------------------------------7-----7-----------|
D#|---------------------------------------------------------------------------|

 [Bridge] (1:58)
D#|--------0-----------0-----------0-----------0------------------------------|
A#|--4-----------4-----------4-----------4------------2/4---------------------|
F#|-----4-----4-----4-----4-----4-----4-----4-----4---------------------------|
C#|---------------------------------------------------------------------------|
G#|---------------------------------------------------------------------------|
D#|---------------------------------------------------------------------------|

D#|---------------------------------------------------------------------------|
A#|---------------------------------------------------------------------------|
F#|--4444444444444444--666----------------------------------------------------|
C#|--xxxxxxxxxxxxxxxx--xxx--7777777777777777----------------------------------|
G#|--2222222222222222--444--xxxxxxxxxxxxxxxx----------------------------------|
D#|-------------------------5555555555555555----------------------------------|

D#|--------0--------0----------0--------0----------0--------0--------0--------0|
A#|--4--------2----------4--------2--------2/4--------2--------4--------2------|
F#|-----4--------2----------4--------2----------4--------2--------4--------2---|
C#|----------------------------------------------------------------------------|
G#|----------------------------------------------------------------------------|
D#|----------------------------------------------------------------------------|

 [Outro] (3:12)
D#|--2/4--0-------------------------------------------------------------------|
A#|---------------------------------------------------------------------------|
F#|---------------------------------------------------------------------------|
C#|---------------------------------------------------------------------------|
G#|---------------------------------------------------------------------------|
D#|---------------------------------------------------------------------------|

 GUITAR 3 (overdubbed):
 [Verse 2] (1:05)
D#|--------------------------------------------------------------------------------------|
A#|--------------------------------------------------------------------------------------|
F#|--2222222222222222------------44444444---------444--222--444444--22222222------4-4-x-4|This one is 
C#|--2222222222222222--22222222--44444444----222--444--222--444444--22222222--222-4-4-x-4|cut up a bit
G#|--0000000000000000--22222222--22222222----222--222--000--222222--00000000--222-2-2-x-2|
D#|--------------------00000000--------------000------------------------------000--------|

The chorus at the end is the same just with some extra palm muting.

************************************

| x  Dead note
| /  Slide up
| h  Hammer-on
| p  Pull-off
| b  Bend

************************************
Suggest correction
comments
print report bad tab
2 comments total.
0 reply
bryancastro 10 May 02, 2015 07:32 AM

To anyone who is wondering, you can use most of this tab for the acoustic version from the More Acoustic Songs EP as well

0 reply
jacob_moss 101 Aug 19, 2016 01:19 AM

Guitar PRO PLEASE?

guest
You may want to rate the tab now too:
select rating
Wanna post a correction for this tab? Suggest correction