Oops, an error
Loading. Please wait.

Ive Given Up On You Tab

version 1
version 1

Whole song

64,065 views 222 this week
1 commentread comment
1 2 3 4 5
excellent!
x 36
add to favorites
launch autoscroll
font size
0
reset
how to read this tab
guitar tuner
Autoscroll
slow
fast
+/-
esc
set tempo
stop
Help us to improve Ultimate-Guitar.com Take our survey!
×
Author
Difficulty
Tuning
intermediate
D A D G B E
-------------------------------------------------------------------------------
                         Real Friends - I've Given Up on You
-------------------------------------------------------------------------------

Track 5 from the EP "Put Yourself Back Together."

I tabbed this by ear after listening to it many times, and I think it's accurate even if
the guitar parts might be
mixed up. It's also probably not in the right tuning. I hope someone will come along and
make a better version, but
since no tab exists yet, I thought I'd put this up. Hope it helps!

You can watch me cover this song using my tabs here: http://www.youtube.com/watch?v=vkfzFQRcRCQ
Watching me play might help with strumming patterns and timing.

Tabbed by: beanies520
Email: beanies530@hotmail.com

Tuning: D A D G b e (Drop D)

E|---------------------------------|---------------------------------|------------------------------|
B|---------------------------------|---------------------------------|------------------------------|
G|---------------------2-----------|---------------------2-----------|---------------------2--------|
D|---------3-------------------3---|---------3-------------------3---|---------3-------------------3|
A|-1---1-------1---1-------1-------|---------------------------------|------------------------------|
D|---------------------------------|-3---3-------3---3-------3-------|-0---0-------0---0-------0----|

E|-----------------------------------|---------------------------------|------------------------------|
B|---------------------1-------------|---------------------------------|------------------------------|
G|------------------------2--2-------|---------------------2-----------|---------------------2--------|
D|---------3---------------------3---|---------3-------------------3---|---------3-------------------3|
A|-----------------------------------|-1---1-------1---1-------1-------|------------------------------|
D|-3---3-------3---3-----------------|---------------------------------|-3---3-------3---3-------3----|

E|---------------------------------|---------------------------------|
B|---------------------------------|---------------------------------|
G|---------------------2-----------|---------------------------------|
D|---------3-------------------3---|-----2---3-------2---3-------2---|x2
A|---------------------------------|-3-----------3-----------3-------|
D|-0---0-------0---0-------0-------|---------------------------------|

                                                                                 You
used to make me feel... (first time)

        You're the reason why I can't...
(second time)

E|---------------------------------|---------------------------------|
B|---------------------------------|---------------------------------|
G|-7---7---7---7---7---7---7---7---|-9---9---9---9---9---9---9---9---|
D|-x---x---x---x---x---x---x---x---|-x---x---x---x---x---x---x---x---|
A|-5---5---5---5---5---5---5---5---|-7---7---7---7---7---7---7---7---|
D|---------------------------------|---------------------------------|

E|---------------------------------|---------------------------------|---------------------------|
B|---------------------------------|---------------------------------|---------------------------|
G|-10--10--10--10--10--10--10--10--|-10--10--10--10--10--10--10--10--|-----------------10--------|
D|-x---x---x---x---x---x---x---x---|-x---x---x---x---x---x---x---x---|---------10-----------10---|
A|-8---8---8---8---8---8---8---8---|-8---8---8---8---8---8---8---8---|-8---10------8-------------|
D|---------------------------------|---------------------------------|---------------------------|


        I write songs about you...

E|---------------------------|----------------------------|---------------------------|
B|---------------------------|----------------------------|---------------------------|
G|-----------------10---9----|----------------------------|-----------------10--------|
D|---------10----------------|------10---7---8---7--------|---------10-----------10---|
A|-8---10------8-------------|-----------------------8----|-8---10------8-------------|
D|---------------------------|----------------------------|---------------------------|

E|---------------------------|----------------------------|---------------------------------|
B|---------------------------|----------------------------|---------------------------------|
G|-----------------10---9----|----------------------------|-10--10--10--10--10--10--10--10--|
D|---------10----------------|------10---7---8---7--------|-10--10--10--10--10--10--10--10--|
A|-8---10------8-------------|-----------------------8----|---------------------------------|
D|---------------------------|----------------------------|---------------------------------|

                                                                                 I've
given up on you...

E|---------------------------------|---------------------------------|---------------------------------|
B|---------------------------------|---------------------------------|---------------------------------|
G|-10--10--10--10--10--10--10--10--|-10--10--10--10--10--10--10--10--|-9---9---9---9---9---9---9---9---|
D|-10--10--10--10--10--10--10--10--|-10--10--10--10--10--10--10--10--|-10--10--10--10--10--10--10--10--|
A|---------------------------------|---------------------------------|---------------------------------|
D|---------------------------------|---------------------------------|---------------------------------|

E|---------------------------------|---------------------------------|---------------------------------|
B|---------------------------------|---------------------------------|---------------------------------|
G|-10--10--10--10--10--10--10--10--|-10--10--10--10--10--10--10--10--|-10--10--10--10--10--10--10--10--|
D|-10--10--10--10--10--10--10--10--|-10--10--10--10--10--10--10--10--|-10--10--10--10--10--10--10--10--|
A|---------------------------------|---------------------------------|---------------------------------|
D|---------------------------------|---------------------------------|---------------------------------|

E|---------------------------------|------------------|
B|---------------------------------|------------------|
G|-9---9---9---9---9---9---9---9---|-10----10----10---|
D|-10--10--10--10--10--10--10--10--|-10----10----10---|
A|---------------------------------|------------------|
D|---------------------------------|------------------|

E|--------------------|------------------|------------------------|---------------------|
B|--------------------|------------------|------------------------|---------------------|
G|------10------------|------------------|------------------------|---------------------|
D|----------12--10----|-10----12----10---|------------------7-----|-7-----7-------------|x4
A|-8------------------|------------------|------8---10--8---------|-------------10--8---|
D|--------------------|------------------|------------------------|---------------------|

                                    It's 4AM...

E|---------------------------|------------------------------|------------------------|
B|---------------------------|------------------------------|------------------------|
G|---------9---10--9---------|------------------------------|------------------------|
D|----------------------10---|-------------10--12--10--7----|--------------10--------|
A|---------------------------|-8---10--8--------------------|-8----8---10-------10---|
D|---------------------------|------------------------------|------------------------|

It's been a lonely year...

E|------------------------|
B|------------------------|
G|------------------------|
D|------------------------|x4
A|-8----10---8---7--------|
D|-------------------10---|

E|---------------------------|
B|---------------------------|
G|-----------------10--------|
D|---------10-----------10---|
A|-8---10------8-------------|
D|---------------------------|

                                   I write songs about you...

E|---------------------------|----------------------------|---------------------------|
B|---------------------------|----------------------------|---------------------------|
G|-----------------10---9----|----------------------------|-----------------10--------|
D|---------10----------------|------10---7---8---7--------|---------10-----------10---|
A|-8---10------8-------------|-----------------------8----|-8---10------8-------------|
D|---------------------------|----------------------------|---------------------------|

E|---------------------------|----------------------------|---------------------------------|
B|---------------------------|----------------------------|---------------------------------|
G|-----------------10---9----|----------------------------|-10--10--10--10--10--10--10--10--|
D|---------10----------------|------10---7---8---7--------|-10--10--10--10--10--10--10--10--|
A|-8---10------8-------------|-----------------------8----|---------------------------------|
D|---------------------------|----------------------------|---------------------------------|

                                                                               I've
given up on you...

E|---------------------------------|---------------------------------|---------------------------------|
B|---------------------------------|---------------------------------|---------------------------------|
G|-10--10--10--10--10--10--10--10--|-10--10--10--10--10--10--10--10--|-9---9---9---9---9---9---9---9---|
D|-10--10--10--10--10--10--10--10--|-10--10--10--10--10--10--10--10--|-10--10--10--10--10--10--10--10--|
A|---------------------------------|---------------------------------|---------------------------------|
D|---------------------------------|---------------------------------|---------------------------------|

E|---------------------------------|---------------------------------|---------------------------------|
B|---------------------------------|---------------------------------|---------------------------------|
G|-10--10--10--10--10--10--10--10--|-10--10--10--10--10--10--10--10--|-10--10--10--10--10--10--10--10--|
D|-10--10--10--10--10--10--10--10--|-10--10--10--10--10--10--10--10--|-10--10--10--10--10--10--10--10--|
A|---------------------------------|---------------------------------|---------------------------------|
D|---------------------------------|---------------------------------|---------------------------------|

E|---------------------------------|---------------------------------|---------------------------------|
B|---------------------------------|---------------------------------|---------------------------------|
G|-9---9---9---9---9---9---9---9---|-10--10--10--10--10--10--10--10--|-10--10--10--10--10--10--10--10--|
D|-10--10--10--10--10--10--10--10--|-10--10--10--10--10--10--10--10--|-10--10--10--10--10--10--10--10--|
A|---------------------------------|---------------------------------|---------------------------------|
D|---------------------------------|---------------------------------|---------------------------------|

E|---------------------------------|---------------------------------|---------------------------------|
B|---------------------------------|---------------------------------|---------------------------------|
G|-10--10--10--10--10--10--10--10--|-9---9---9---9---9---9---9---9---|-10--10--10--10--10--10--10--10--|
D|-10--10--10--10--10--10--10--10--|-10--10--10--10--10--10--10--10--|-10--10--10--10--10--10--10--10--|
A|---------------------------------|---------------------------------|---------------------------------|
D|---------------------------------|---------------------------------|---------------------------------|

E|---------------------------------|---------------------------------|---------------------------------|
B|---------------------------------|---------------------------------|---------------------------------|
G|-10--10--10--10--10--10--10--10--|-10--10--10--10--10--10--10--10--|-9---9---9---9---9---9---9---9---|
D|-10--10--10--10--10--10--10--10--|-10--10--10--10--10--10--10--10--|-10--10--10--10--10--10--10--10--|
A|---------------------------------|---------------------------------|---------------------------------|
D|---------------------------------|---------------------------------|---------------------------------|

E|------------------|
B|------------------|
G|-10----10----10---|
D|-10----10----10---|
A|------------------|
D|------------------|



************************************

| x  Dead note

************************************
Suggest correction
What's this?
You can suggest a correction to this tab. Community and Mods will review your correction and vote to approve or reject it.
comments
print report bad tab
1 comment total.
0 reply
ChikaraGuy 62 wrote on March 5 2015, 11:41 am

Does anyone else sweep the first little lead fill? I think it sounds better than picking it.

guest
You may want to rate the tab now too:
select rating
Please do not post tabs as comments. Select "correction" instead!