Oops, an error
Loading. Please wait.

Late Nights In My Car Acoustic tab

version 2
version 2

Whole song

Interactive

1,554 views 3 this week
no commentswrite comment
1 2 3 4 5
x 3
add to favorites
×
Save as Personal and add changes to this tab that will be seen only by you. Learn more ›
×
You can save this tab as Personal to edit and correct it or add notes. All changes will be seen only by you. Learn more »
launch autoscroll
font size
0
reset
how to read this tab
guitar tuner
edit
Autoscroll
slow
fast
+/-
esc
set tempo
stop
Author
Tabbed By: Fabio BlenderBR

 Enjoy!


         **Tuning: Half Step Down**
            ( Eb Ab Db Gb Bb Eb )

 - F#7 ( 2 0 0 0 3 0 )


 - Intro:

Em7   Cadd9 G     D
Cadd9 Cadd9 Cadd9 

(00:00)
eb|-----------------|      eb|-------5---------|      eb|-------5---------|      eb|--3--3--3---|
Bb|-------8---------|      Bb|---8-----8---8---|      Bb|---7-----7---7---|      Bb|--3--3--3---|
Gb|---7-----7---7---|      Gb|-7---7-----7-----|      Gb|-7---7-----7-----|      Gb|--0--0--0---|
Db|-5---5-----5-----|  8x  Db|-----------------|  4x  Db|-----------------|  4x  Db|--2--2--2---|  1x  
Ab|-----------------|      Ab|-----------------|      Ab|-----------------|      Ab|--3--3--3---|
Eb|-----------------|      Eb|-----------------|      Eb|-----------------|      Eb|------------|



 - Verse 1:

G
I've been up spending every late night in my car

(I've been up... - 00:25)
eb|---------------------------------------------------------------------|
Bb|-8888888888888888--887788778877--5533355335533-----------------------|
Gb|-7777777777777777--777777777777--5555555555555-----------------------|
Db|-5555555555555555--555555555555--------------------------------------|
Ab|---------------------------------------------------------------------|
Eb|---------------------------------------------------------------------|

      Em7
Listening to all these sad songs
Cadd9
I know it sounds weird
            G
But they're helping me move past all these things running through my head

(Helping me move... - 00:37)
eb|---------------------------------------------------------------------|
Bb|-8888888888888-888-10-10-10-12-12-12--887788778877--5533355335533----|
Gb|-7777777777777-xxx-x--x--x--x--x--x---777777777777--5555555555555----|
Db|-5555555555555-555-7--7--7--9--9--9---555555555555-------------------|
Ab|---------------------------------------------------------------------|
Eb|---------------------------------------------------------------------|
              Em7                    Cadd9
I'll blame the mid-west and sleepy eyes



 - Pre Chorus:

G               Cadd9
I'm not where I should be

(I'm not where... 00:51)
eb|-------------------------|
Bb|------------------8------|
Gb|-----4h5------5h7---7----|
Db|-5h7---------------------|
Ab|-------------------------|
Eb|-------------------------|

Em7            F#7      Cadd9
I'm not what I could be
       G          Cadd9    Em7 F#7  Cadd9
But I'm not who I was

(But I'm not... 00:57)
eb|-------------------------|
Bb|------------------8------|
Gb|-----4h5------5h7---7----|
Db|-5h7---------------------|
Ab|-------------------------|
Eb|-------------------------|



 - Chorus:

Cadd9      G              Em7
Nostalgia gets the best of me

(Nostalgia gets the... 01:03)
eb|-88888888-77777777--------------------88888888-77777777--------------|
Bb|-88888888-88888888-88888888-88888888--88888888-88888888-88888888-8---|
Gb|-------------------99999999-77777777--------------------77777777-9---|
Db|---------------------------------------------------------------------|
Ab|---------------------------------------------------------------------|
Eb|---------------------------------------------------------------------|

      D                  Cadd9   G
When I wake up it's the same day, it fucks me up
D                               Em7
And makes me miss who I used to be
Cadd9  G         Em7              
All I have are thoughts of me from

(All I have... 01:16)
eb|--------10----------------------------|
Bb|---8--8----8----8------7~--7h8~--7----|
Gb|-7--7---------7---7--7------------7---|
Db|--------------------------------------|
Ab|--------------------------------------|
Eb|--------------------------------------|

D             Cadd9  G             D
back when I was 18, and my bony knees

(18, and my... 01:22)
eb|--------10--------------------8888-7------------|
Bb|---8--8----8----8-----8888888-8888-8------------|
Gb|-7--7---------7---7---7777777-------------------|
Db|------------------------------------------------|
Ab|------------------------------------------------|
Eb|------------------------------------------------|



 - Post Chorus:

Cadd9  Em7  C/B 
Cadd9  Em7  C/B 
Cadd9  Em7  C/B 
D



 - Verse 2:

Cadd9            Em7         D
Don't want it to be like my teenage years
Cadd9           Em7              D
I was naive and weak back then Without much trouble on my shoulders
Cadd9       Em7     D                    Cadd9         Em7         D
If I don't break I won't know how to put myself back together

(If I don't... 01:53)
eb|----------------------------------5----------------------------------|
Bb|-----8--------8--------8--------8---8--------8--------8----7-8-7-----|
Gb|---7---7----7---7----7---7----7-------7----7---7----7---7--7-7-7-----|
Db|-5--------5--------5--------5------------5--------5--------5-5-5-----|
Ab|---------------------------------------------------------------------|
Eb|---------------------------------------------------------------------|



- Chorus:

Cadd9      G              Em7
Nostalgia gets the best of me

(Nostalgia gets the... 02:06)
eb|-88888888-77777777--------------------88888888-77777777--------------|
Bb|-88888888-88888888-88888888-88888888--88888888-88888888-88888888-8---|
Gb|-------------------99999999-77777777--------------------77777777-9---|
Db|---------------------------------------------------------------------|
Ab|---------------------------------------------------------------------|
Eb|---------------------------------------------------------------------|

      D                  Cadd9   G
When I wake up it's the same day, it fucks me up
D                               Em7
And makes me miss who I used to be
Cadd9  G         Em7              
All I have are thoughts of me from

(All I have... 02:19)
eb|--------10----------------------------|
Bb|---8--8----8----8------7~--7h8~--7----|
Gb|-7--7---------7---7--7------------7---|
Db|--------------------------------------|
Ab|--------------------------------------|
Eb|--------------------------------------|

D             Cadd9  G             D
back when I was 18, and my bony knees

(18, and my... 02:25)
eb|--------10--------------------8888-7------------|
Bb|---8--8----8----8-----8888888-8888-8------------|
Gb|-7--7---------7---7---7777777-------------------|
Db|------------------------------------------------|
Ab|------------------------------------------------|
Eb|------------------------------------------------|



  - Bridge:

Em7 Em7 Cadd9

(02:34)
eb|-------------------|
Bb|-------------------|
Gb|--4~----------4----|
Db|------5-----5------|
Ab|----------3--------|
Eb|-------------------|

Em7 Em7 Cadd9                       
               If you never break

(02:40)
eb|--3-----|
Bb|----3---|
Gb|--------|
Db|--------|
Ab|--------|
Eb|--------|

D D Cadd9 Cadd9 D Cadd9                           D D Em7 Em7 D 
                         You'll never know how

(02:45)
eb|--3----------3---|
Bb|----3------3-----|
Gb|-------4~--------|
Db|-----------------|
Ab|-----------------|
Eb|-----------------|


Cadd9               Em7            G
If you never break, You'll never know how

(If you never... 02:51)
eb|-7-7-7-7-7-7-7-7-7-7-7-7-7-7-------------|
Bb|-x-x-x-x-x-x-x-x-x-x-x-x-x-x-8-8-8-8-----|
Gb|-4-4-4-4-4-4-4-4-4-4-4-4-4-4-x-x-x-x-----|
Db|-----------------------------5-5-5-5-----|
Ab|-----------------------------------------|
Eb|-----------------------------------------|

Cadd9               Em7            G
If you never break, You'll never know how

(If you never... 02:57)
eb|-7-7-7-7-7-7-7-7-7-7-7-7-7-7-------------|
Bb|-x-x-x-x-x-x-x-x-x-x-x-x-x-x-8-8-8-8-----|
Gb|-4-4-4-4-4-4-4-4-4-4-4-4-4-4-x-x-x-x-----|
Db|-----------------------------5-5-5-5-----|
Ab|-----------------------------------------|
Eb|-----------------------------------------|

Cadd9                             Em7
If you never break, You'll never know,

(If you never... 03:04)
eb|-7-7-7-7-7-7-7-7-7-7-7-7-7-7-7-7-7-7-7-7-7-7-7-7-7-7-7--|
Bb|-x-x-x-x-x-x-x-x-x-x-x-x-x-x-x-x-x-x-x-x-x-x-x-x-x-x-x--|
Gb|-4-4-4-4-4-4-4-4-4-4-4-4-4-4-4-4-4-4-4-4-4-4-4-4-4-4-4--|
Db|--------------------------------------------------------|
Ab|--------------------------------------------------------|
Eb|--------------------------------------------------------|
               G                 Cadd9
If you never break, You'll never know

If you never break, You'll never know

If you never break
Cadd9         G   Em7           D           Cadd9    G    D
You'll never know how to put yourself back together

(You'll never... 03:16)
eb|--3------------3----2--2h3--------------2--|
Bb|----3------------3---------3-3----------3--|
Gb|-------------------------------------------|
Db|-------0---------------------------0-------|
Ab|-------------------------------------------|
Eb|-------------------------------------------|




- Chorus:

Cadd9      G              Em7
Nostalgia gets the best of me

(Nostalgia gets the... 03:28)
eb|-88888888-77777777--------------------88888888-77777777--------------|
Bb|-88888888-88888888-88888888-88888888--88888888-88888888-88888888-8---|
Gb|-------------------99999999-77777777--------------------77777777-9---|
Db|---------------------------------------------------------------------|
Ab|---------------------------------------------------------------------|
Eb|---------------------------------------------------------------------|

      D                  Cadd9   G
When I wake up it's the same day, it fucks me up
D                               
And makes me miss who I used to be
Cadd9  G         Em7              
All I have are thoughts of me from

(All I have... 03:41)
eb|--------10----------------------------|
Bb|---8--8----8----8------7~--7h8~--7----|
Gb|-7--7---------7---7--7------------7---|
Db|--------------------------------------|
Ab|--------------------------------------|
Eb|--------------------------------------|

D             Cadd9  G             D         Cadd9
back when I was 18, and my bony knees

(18, and my... 03:47)
eb|--------10-----------8-8-8-8-8-7----|
Bb|---8--8----8----8----8-8-8-8-8-8----|
Gb|-7--7---------7---7-----------------|
Db|------------------------------------|
Ab|------------------------------------|
Eb|------------------------------------|

__________
Hope you liked!

Tabbed by: Fabio BlenderBR

            
            
Suggest correction
Creating personal tab
Creating personal tab
You can edit any tab online and save it as your Personal.

You can edit, replace or remove any tab part or add personal notes – all changes will be seen only by you.

Personal tabs can be accessed anytime from any device, even offline.
Learn more »
Give kudos to tab author, rate the tab!
1 2 3 4 5
comments
print report bad tab
guest
You may want to rate the tab now too:
select rating
Wanna post a correction for this tab? Suggest correction