Oops, an error
Loading. Please wait.

Sixteen tab

version 1
version 1

Whole song

4,879 views 36 this week
4 commentsread comments
1 2 3 4 5
x 7
add to favorites
×
Save as Personal and add changes to this tab that will be seen only by you. Learn more ›
×
You can save this tab as Personal to edit and correct it or add notes. All changes will be seen only by you. Learn more »
launch autoscroll
font size
0
reset
how to read this tab
guitar tuner
edit
Autoscroll
slow
fast
+/-
esc
set tempo
stop
-------------------------------------------------------------------------------
                             SIXTEEN - Real Friends
-------------------------------------------------------------------------------
Tabbed by: Ariel Rubio
E-mail: allonsyariel@gmail.com

Tuning: Open C# (C#G#C#FG#C#)

RHYTHM GUITAR

INTRO/VERSE 1 Play Twice

e|-------------------------|    |----------------------------------|
B|-------------------------|    |----------------------------------|
G|---8/10--------------3---| x2 |------8-------8-------8-------8---|
D|----------7----0h2h4---4-|    |----7---7---7---7---7---7---7---7-|
A|-------------------------|    |-10-------9-------7-------9-------|
E|-0------0----0-----------|    |----------------------------------|

PRE-CHORUS

e|---------0-----------0---------0----------0--|
B|-------0-----------0---------0----------0----|
G|-----0----------12---------0---------12------|
D|--------------0------------------------------|
A|-10--------12----------10--------12----------|
E|---------------------------------------------|

CHORUS 1

e|-0---------------0-------------0-------------|
B|-0---------------0-------------0-------------|
G|-0---------------0-------------0-------------| x4
D|-9---------------4-------------7-------------|
A|-10-x2 measures--5-x1 measure--9-x1 measure--|
E|---------------------------------------------|

POST-CHORUS

e|----7p4-0-2-0----------2---4--|
B|--------------4------5---5----|
G|-----------------3h5----------| x2 Let it ring the
D|-0----------------------------|    2nd time around
A|-0----------------------------|
E|-0----------------------------|

ONLY LEAD GUITAR PLAYS VERSE 2

CHORUS 2

e|-0---------------0-------------0-------------|
B|-0---------------0-------------0-------------|
G|-0---------------0-------------0-------------| x4
D|-9---------------4-------------7-------------|    End on last chord
A|-10-x2 measures--5-x1 measure--9-x1 measure--|    Let it ring
E|---------------------------------------------|


LEAD GUITAR


INTRO/VERSE

e|-12^---------------------------|
B|-12^---------------------------|
G|-12^-----------------------5^--| x2
D|-12^---------------7^--5^------|
A|-12^---------------------------|
E|-12^---------------------------|

PRE-CHORUS

e|-------------------------|
B|-----7^----------7^------|
G|--------7^----------7^~--|
D|-5^----------5^----------|
A|-------------------------|
E|-------------------------|

CHORUS 1

e|-0---------------0-------------0-------------|
B|-0---------------0-------------0-------------|
G|-0---------------0-------------0-------------| x4
D|-9---------------4-------------7-------------|
A|-10-x2 measures--5-x1 measure--9-x1 measure--|
E|---------------------------------------------|

POST-CHORUS

e|-----------------------------------------------------------|
B|-----------------------------------------------------------|
G|-----------------------------------------------------------|
D|---0------0------0------0------0------4p0------0------0----|
A|-----0------0------0------0------0--------0------0------0--|
E|-0------0------5------5------0------0--------5------5------|

VERSE 2

e|--------------------0----------0------0------0------0--|  Let ring 2nd time
B|-------0--------0-----0--------------------------------|  around
G|---0-----0--------0-----0----3------3------3------3----| x2
D|-----0-----0---------------5------4------2------0------|
A|--------------0----------------------------------------|
E|-5-----------------------------------------------------|

CHORUS 2

e|-0---------------0-------------0-------------| End on last chord
B|-0---------------0-------------0-------------| Let it ring
G|-0---------------0-------------0-------------| x4
D|-9---------------4-------------7-------------|
A|-10-x2 measures--5-x1 measure--9-x1 measure--|
E|---------------------------------------------|



CHORUS LEAD PART (During Both Choruses)


e|---------------------------------------7-----------------------------------|
B|--------9--------------------9---------------------------------------------|
G|----8-----8-----------8/10-8-------8-----8-----------8/10-8-7h8------------|
D|------7-----7----4-------------------7-----7----4--------------------------|
A|-10------------5---5------------10------------5---5------------------------|
E|---------------------------------------------------------------------------|

e|--------7------------------------------7-----------------------------------|
B|-----------------------------9---------------------------------------------|
G|----8-----8-----------8/10-8-------8-----8-----------8/10-8-7~-------------|
D|------7-----7----4-------------------7-----7----4--------------------------|
A|-10------------5---5------------10------------5---5------------------------|
E|---------------------------------------------------------------------------|


OUTRO LEAD (After CHORUS 2)


e|--------------|
B|--------------|
G|---8---7h8----| x until the end
D|-0---0-----7--|
A|--------------|
E|--------------|



************************************

| /   slide up
| \   slide down
| h   hammer-on
| p   pull-off
| ~   vibrato
| +   harmonic
| x   Mute note
| b   Bend
| pb  Pre-bend
| br  Bend release
| pbr Pre-bend release
| brb Bend release bend

************************************

            
            
Suggest correction
Creating personal tab
Creating personal tab
You can edit any tab online and save it as your Personal.

You can edit, replace or remove any tab part or add personal notes – all changes will be seen only by you.

Personal tabs can be accessed anytime from any device, even offline.
Learn more »
comments
print report bad tab
4 comments total. Showing first comments.
0 reply
BlenderBR 18,046 Jun 12, 2015 09:21 PM

I was on my way to tab this song, then I found your version which is very accurate and well written. Good work on this tab mate, keep it up! :)

-1 reply
kingforaday317 10 Aug 26, 2015 05:59 PM

Lack of accuracy. A few of the tabs just sound like someone has missed a fret or two. It guides one to find out the tabs for themself, but I just don't like how it sounds compared to the song.

guest
You may want to rate the tab now too:
select rating
Wanna post a correction for this tab? Suggest correction