Oops, an error
Loading. Please wait.

Skin Deep tab

1,108 views 6 this week
1 commentread comment
1 2 3 4 5
x 4
add to favorites
×
Save as Personal and add changes to this tab that will be seen only by you. Learn more ›
×
You can save this tab as Personal to edit and correct it or add notes. All changes will be seen only by you. Learn more »
launch autoscroll
font size
0
reset
how to read this tab
guitar tuner
edit
Autoscroll
slow
fast
+/-
esc
set tempo
stop
-------------------------------------------------------------------------------
                             Skin Deep - Real Friends (Rythm)
-------------------------------------------------------------------------------
Tabbed by: Wolf
E-mail: wolfnr4@gmail.com           

Tuning: Drop D

Hey guys! I was looking for these tabs myself but couldn't find any so I decided to do them myself!
These are my very first self-made tabs so I hope it'll be helpful! I didn't manage to do the lead guitar due
to the fact that I'm still trying to figure the chorus out for lead guitar... I'll update it asap. Enjoy!

x: Ghost note
~: Let ring
.: Palm muted
(6x),(8x),...: Play 6 times, 8 times, ...

Intro:

e|---------------------------------------------------------------------------|
B|---------------------------------------------------------------------------|
G|x8~-----------------8~-----------------8~------8~---------8~---------------|
D|x8~--8~--6~---------8~--8~--8~---------8~--8~--8~---------8~--8~--66666666-|
A|x6~--8~--6~---------6~--8~--6~---------6~--8~--6~---------6~--8~--66666666-|
D|-----8~--6~-------------8~--6~-------------8~--6~-------------8~--66666666-|
                                                                    .......
"This time around, I wasn't honest enough with how I really felt"
On the word 'really', the verse begins.

Verse: 

e|---------------------------------------------------------------------------|
B|---------------------------------------------------------------------------|
G|---------------------------------------------------------------------------|
D|10-------8-------6----------------10-------8-------6-----------------------|
A|10-(12x)-8-(12x)-6-(24x)----------10-(12x)-8-(12x)-6-(24x)-----------------|
D|10-------8-------6----------------10-------8-------6-----------------------|

"You're just another sad song to me"

On the word 'another' this prechorus  begins. 

Prechorus: 

e|---------------------------------------------------------------------------|
B|----------------(lead:)----8-----------------11--8~------------------------|
G|------------------------------8--10~------8--------------------------------|
D|-8-------6~----------------------------------------------------------------|
A|-8-(24x)-6~----------------------------------------------------------------|
D|-8-------6~----------------------------------------------------------------|

Chorus: 

"I've got this lonely night..."

e|---------------------------------------------------------------------------|
B|---------------------------------------------------------------------------|
G|---------------------------------------------------------------------------|
D|8------10------6------3------8------10------12--8--6~-----x-x--xxxx--------|
A|8-(8x)-10-(8x)-6-(8x)-3-(8x)-8-(8x)-10-(8x)-12--8--6~-----x-x--xxxx--------|
D|8------10------6------3------8------10------12--8--6~-----x-x--xxxx--------|

"The truth is, you won't even be there..."

e|---------------------------------------------------------------------------|
B|---------------------------------------------------------------------------|
G|8---------------------------------8----------------------------------------|
D|8-(8x)-8------10-------x-6-x-6----8-(8x)-8------10------6------------------|
A|6------8-(8x)-10-(8x)--x-6-x-6----6------8-(8x)-10-(8x)-6-(6x)-------------|
D|-------8------10-------x-6-x-6-----------8------10------6------------------|

Verse 2:

"I saw right through you..."

e|---------------------------------------------------------------------------|
B|---------------------------------------------------------------------------|
G|888------------------------------------------------------------------------|
D|888-(4x)-888------666---------(Play this twice to complete verse 2)--------|
A|666------888-(4x)-666-(8x)-------------------------------------------------|
D|---------888------666------------------------------------------------------|
  ..       ..       ..

Prechorus 2:

e|---------------------------------------------------------------------------|
B|---------------------------------------------------------------------------|
G|---------------------------------------------------------------------------|
D|88--xx8~----1010--xx8~-----------------------------------------------------|
A|66--xx6~-----8-8--xx6~-----------------------------------------------------|
D|---------------------------------------------------------------------------|


Then play the chorus again.

Bridge:

"Will I ever know how it feels to be home again...'

e|---------------------------------------------------------------------------|
B|---------------------------------------------------------------------------|
G|--------------(Play this twice)--------------------------------------------|
D|10~--8~--6~----------------------10-------8-------6------------------------|
A|10~--8~--6~----------------------10-(12x)-8-(12x)-6-(24x)------------------|
D|10~--8~--6~----------------------10-------8-------6------------------------|

e|---------------------------------------------------------------------------|
B|---------------------------------------------------------------------------|
G|---------------------------------------------------------------------------|
D|10--------8-88-8-88-8-8-8-88-8-88-8---6------------------------------------|
A|10-(12x)--8-88-8-88-8-8-8-88-8-88-8---6-(24x)------------------------------|
D|10--------8-88-8-88-8-8-8-88-8-88-8---6------------------------------------|
              ..   ..   .   ..   ..

And then play the chorus again with the first part palm muted. 

Enjoy! :) 

************************************

************************************

            
            
Suggest correction
Creating personal tab
Creating personal tab
You can edit any tab online and save it as your Personal.

You can edit, replace or remove any tab part or add personal notes – all changes will be seen only by you.

Personal tabs can be accessed anytime from any device, even offline.
Learn more »
comments
print report bad tab
1 comment total.
0 reply
charteddyz 115 Apr 16, 2016 11:07 AM

The chords used with the chosen tuning do not sound right. I tried playing it with the song and it does not sound right :(

guest
You may want to rate the tab now too:
select rating
Wanna post a correction for this tab? Suggest correction