Oops, an error
Loading. Please wait.

Something Like That ukulele

34 views 1 this week
no commentswrite comment
1 2 3 4 5
3 more votes to show rating
add to favorites
×
Save as Personal and add changes to this tab that will be seen only by you. Learn more ›
×
You can save this tab as Personal to edit and correct it or add notes. All changes will be seen only by you. Learn more »
launch autoscroll
font size
0
reset
transpose
0
reset
display chords
guitar tuner
edit
Autoscroll
slow
fast
+/-
esc
set tempo
stop
Strumming
There is no strumming pattern for this song yet. and get +5 IQ
This is going to be my final version of the song. Any changes will be simple 
corrections. As an update, I included the acoustic intro and guitar solo to the cord sheet. 

Reality Addiction
Something Like That
Key: C#m
Capo: 2, 4

C#m
B
A
F#m
G#m

Intro:
(Intro is best played with second capo)

e|--------|--------|--------|--------|--------|--------|--------|--------|
B|--------|--------|--------|--------|--------|--------|--------|--------|
G|--------|--------|--------|--------|--------|--------|--------|--------|
D|--6-76--|--6-76-6|--6-76--|--6-76-6|--6-76--|--6-76-6|--6-76--|--6--676|
A|44-4---4|44-4----|--------|--------|--------|--------|22-2---2|22------|
E|--------|--------|55-5---5|55-5----|22-2--22|22-2----|--------|--------|

e|--------|--------|--------|--------|--------|--------|--------|--------|
B|--------|--------|--------|--------|--------|--------|--------|--------|
G|--------|--------|--------|--------|--------|--------|--------|--------|
D|--6-76--|--6-76-6|--6-76--|--6-76-6|--6-76--|--6-76-6|--6-76--|--6--676|
A|44-4---4|44-4----|--------|--------|--------|--------|22-2---2|22------|
E|--------|--------|55-5---5|55-5----|22-2--22|22-2----|--------|--------|


The Verse Goes like This:
e|--------|--------|--------|--------|--------|--------|--------|--------|
B|--------|--------|--------|--------|--------|--------|--------|--------|
G|--------|--------|--------|--------|--------|--------|--------|--------|
D|--6-76--|--6-76-6|--6-76--|--6-76-6|--6-76--|--6-76-6|--6-76--|--6--676|
A|44-4---4|44-4----|--------|--------|--------|--------|--------|--------|
E|--------|--------|55-5---5|55-5----|77-7--77|77-7----|55-5---5|55-5----|


Song Chords:

C#m,                 A
I never meant for it to be
B
This way, or this day
C#m            A
Time it came so suddenly
B       A
Its OK, Its OK


C#m
Its hard for me to explain
B
Difficult for me to gauge
A                       B
Underlying the that the fear is of siding now



(Chorus)
C#m                B
I'm dieing here to some how understand
         A
How this castle whoa whoa
         G#m            C#m
How this castle made of sand
               B
so many broken promises
             A
Are slipping through my hand
           G#m
How do you hold on to

Something like that




C#m           A
I never meant for you to see
B
Everything, Everyday
C#m            A
Time it came so suddenly
B       A
Its OK, Its OK


C#m
Its hard for me to explain
B
Difficult for me to gauge
A                       B
Underlying the that the fear is of siding now



(Chorus)


C#m
Castle made of sand
C#m
Castle made of sand
C#m
Difficulty breathing


Guitar Solo: C#m, B, A, G#m (x2)
(Tabbed Below)


C#m               B
I'm tying here to somehow understand
A
How this castle whoa whoa
G#m
How this castle we defend
C#m            B
So many little grains of sand
             A
Are slipping through my hand
G#m                  C#m
How do you hold on to

Some thing like that


Guitar Solo Tab:
e|------------------------|------------------------|
B|14-14-14-14-14-14-14-14-|14-14-14-14-16-16-17-17-|
G|------------------------|------------------------|
D|------------------------|------------------------|
A|------------------------|------------------------|
D|------------------------|------------------------|
E|------------------------|------------------------|

e|------------------------|------------------------|
B|12-12-12-12-12-12-12-12-|12-12-12-12-16-16-17-17-|
G|------------------------|------------------------|
D|------------------------|------------------------|
A|------------------------|------------------------|
D|------------------------|------------------------|
E|------------------------|------------------------|

e|------------------------|------------------------|
B|------------------------|------------16-16-17-17-|
G|14-14-14-14-14-14-14-14-|14-14-14-14-------------|
D|------------------------|------------------------|
A|------------------------|------------------------|
D|------------------------|------------------------|
E|------------------------|------------------------|

e|------------------------|------------------------|
B|------------------------|------------12-12-12-12-|
G|13-13-13-14-14-14-13-13-|13-14-14-14-------------|
D|------------------------|------------------------|
A|------------------------|------------------------|
D|------------------------|------------------------|
E|------------------------|------------------------|

e|------------------------|------------------------|
B|------------------------|------------------------|
G|------------------------|------------------------|
D|11-11-11-11-11-11-11-11-|11-11-11-11-------------|
A|------------------------|------------11-11-11-11-|
D|------------------------|------------------------|
E|------------------------|------------------------|

e|------------------------|------------------------|
B|------------------------|------------------------|
G|------------------------|------------------------|
D|13-13-13-13-13-13-13-13-|13-13-13-13-------------|
A|------------------------|------------11-11-11-11-|
D|------------------------|------------------------|
E|------------------------|------------------------|
                                                    (see notes)
e|------------------------|------------------------|------------|--------|
B|------------------------|------------------------|------------|--------|
G|------------------------|------------------------|------------|--------|
D|14-14-14-14-14-14-14-14-|14-14-14-14-------------|12-13-12-13-|--------|
A|------------------------|------------11-11-11-11-|------------|11------|
D|------------------------|------------------------|------------|--------|
E|------------------------|------------------------|------------|--------|

Notes: 
-I'm not entirely certain about some of the lyrics. If you 
believe I have made an error, let me know and I will Fix it.
-Also in the solo they use an effect that I can't figure out, if you know exactly 
what happens, let me know
-As always more comments will be on my blog
Suggest correction
Creating personal tab
Creating personal tab
You can edit any tab online and save it as your Personal.

You can edit, replace or remove any tab part or add personal notes – all changes will be seen only by you.

Personal tabs can be accessed anytime from any device, even offline.
Learn more »
Give kudos to tab author, rate the tab!
1 2 3 4 5
comments
print report bad tab
guest
Wanna post a correction for this tab? Suggest correction