Oops, an error
Loading. Please wait.

Moments Like This tab

version 1
version 1

Whole song

Interactive

by Reamonn
10,112 views 1 this week
1 commentread comment
1 2 3 4 5
2 more votes to show rating
add to favorites
×
Save as Personal and add changes to this tab that will be seen only by you. Learn more ›
×
You can save this tab as Personal to edit and correct it or add notes. All changes will be seen only by you. Learn more »
launch autoscroll
font size
0
reset
how to read this tab
guitar tuner
edit
Autoscroll
slow
fast
+/-
esc
set tempo
stop
Difficulty
intermediate
this is my first tab so pleae rate it

this is the main theme from the intro it's played 2times at the beginning and after 
verse but you can play it through the whole song


e<------------------------------------------------->
B<------------------------------------------------->
G<------------13-11-11-11-13-9-9-9-13-8-8-8-13----->
D<---11-11-11-13-11-11-11-13-9-9-9-13-8-8-8-13----->
A<---11-11-11-11-9 -9 -9 -11-7-7-7-11-6-6-6-11----->
E<---9 -9 -9 -------------------------------------->

            
            
Suggest correction
Creating personal tab
Creating personal tab
You can edit any tab online and save it as your Personal.

You can edit, replace or remove any tab part or add personal notes – all changes will be seen only by you.

Personal tabs can be accessed anytime from any device, even offline.
Learn more »
Give kudos to tab author, rate the tab!
1 2 3 4 5
comments
print report bad tab
1 comment total.
0 reply
BW_MadCat 10 Sep 05, 2009 04:26 AM

In my opinion it should be more like this tho:

e|-------------------------------------------------|
B|-------------------------------------------------|
G|------------13-11-11-11-13-9-9-9-13-8-8-8-13-----|
D|---11-11-11--x--x--x--x--x-x-x-x--x-x-x-x--x-----|
A|----x--x--x-11--9--9--9-11-7-7-7-11-6-6-6-11-----|
E|----9--9--9--------------------------------------|

guest
Wanna post a correction for this tab? Suggest correction