Oops, an error
Loading. Please wait.

Tonight tab

version 1
version 1

Whole song

Interactive

by Reamonn
9,359 views 6 this week
1 commentread comment
1 2 3 4 5
x 6
add to favorites
×
Save as Personal and add changes to this tab that will be seen only by you. Learn more ›
×
You can save this tab as Personal to edit and correct it or add notes. All changes will be seen only by you. Learn more »
launch autoscroll
font size
0
reset
how to read this tab
guitar tuner
edit
Autoscroll
slow
fast
+/-
esc
set tempo
stop
Author
Difficulty
Reamonn - Tonight    

Chords used: 
Em   022000
Am   x02210
D    xx0232
C    x32010
B    x24442
Bm   x24432



INTRO: 
    Em                      Am 
E||--15------14------------|------------------------|
B||----------------12------|--10------12----10------|
G||------------------------|------------------------|
D||------------------------|------------------------|
A||------------------------|------------------------|
E||------------------------|------------------------|

D                         Bm                       C
--17------15----14------|------------------------|--15------14------------|
------------------------|--12--------------------|----------------12------|
------------------------|----------12----11------|------------------------|
------------------------|------------------------|------------------------|
------------------------|------------------------|------------------------|
------------------------|------------------------|------------------------|

  Am                       D                         B        **
-----------------------|--19------17------14----|-----------14BR--12------|
--10-----------10------|------------------------|-------------------------|
----------9------------|------------------------|-------------------------|
-----------------------|------------------------|-------------------------|
-----------------------|------------------------|-------------------------|
-----------------------|------------------------|-------------------------|

**bend note and release


Em        Am                D
She never took the train alone
           Bm           C
she hated being on her own 
            Am             D
She always took me by the hands
     B
and say she needs me 


Em        Am                D
She never wanted love to fail
           Bm           C
she always hoped that it was real 
      Am               D
She'd look me in the eyes
    B
and say believe me 

Em           Am                D
And then the night becomes the day
              Bm           C
and there’s nothing left to say 
           Am                D
If there's nothing left to say
       B
then something’s wrong 


Em    Am           D                  Bm
Oh   tonight you killed me with your smile
      C           Am       B
so beautiful and wild so beautiful 
Em    Am          D                 Bm
Oh tonight you killed me with your smile
      C           Am       B           Em          
so beautiful and wild so beautiful and wild 


Em               Am                D
And as the hands would turn with time
              Bm                   C
she'd always say that she was my mine 
            Am              D
She'd turn and lend a smile
       B
to say that she's gone 


Em               Am         D
But in a whisper she'd arrive
      Bm            C
and dance into my life 
       Am          D
Like a music melody
      B
like a lovers song


Em    Am           D                  Bm
Oh   tonight you killed me with your smile
      C           Am       B
so beautiful and wild so beautiful 
Em    Am          D                 Bm
Oh tonight you killed me with your smile
      C           Am       B           Em          
so beautiful and wild so beautiful and wild 


B                   Em
Through the darkest night 
B                   Em
comes the brightest light
B                   Em
And the light that shines
           Em
is deep inside
            B
It's who you are


Em    Am           D                  Bm
Oh   tonight you killed me with your smile
      C           Am       B
so beautiful and wild so beautiful 
Em    Am          D                 Bm
Oh tonight you killed me with your smile
      C           Am       B           Em          
so beautiful and wild so beautiful and wild 
Suggest correction
Creating personal tab
Creating personal tab
You can edit any tab online and save it as your Personal.

You can edit, replace or remove any tab part or add personal notes – all changes will be seen only by you.

Personal tabs can be accessed anytime from any device, even offline.
Learn more »
comments
print report bad tab
1 comment total.
-1 reply
stelios69guitar 10 Apr 25, 2011 11:18 AM

E||--15------14------------|-17------15----14-------|
B||----------------12------|------------------------|
G||------------------------|------------------------|
D||------------------------|------------------------|
A||------------------------|------------------------|
E||------------------------|------------------------|

E||--15------14------------|-17--15--14--15--14--12-|
B||----------------12------|------------------------|
G||------------------------|------------------------|
D||------------------------|------------------------|
A||------------------------|------------------------|
E||------------------------|------------------------|
i think that's right

guest
You may want to rate the tab now too:
select rating
Wanna post a correction for this tab? Suggest correction