Oops, an error
Loading. Please wait.

Dont Cost Nothing Tab

version 1
version 1

Whole song

Interactive

295 views 39 this week
no commentswrite comment
1 2 3 4 5
3 more votes to show rating
add to favorites
launch autoscroll
font size
0
reset
how to read this tab
guitar tuner
Autoscroll
slow
fast
+/-
esc
set tempo
stop
Help us to improve Ultimate-Guitar.com Take our survey!
×
Author
Difficulty
intermediate
[Intro]
      Bright sunny day, Don't cost nothin' Light summer breeze, Don't cost nothin' What do I  do
e|------------------|--------------------|---------------0----|-------------3----|-------------8----|
B|-------0-----5\---|--------------------|---------------1----|----------3--3----|-------5-----5----|
G|----------0-------|-------4-------4----|-------0-------0----|-------3-----3----|----------5--5----|
D|------------------|----------3----0----|----------2---------|-------------5----|----7-------------|
A|----3-------------|----2----------2----|----0---------------|------------------|------------------|
E|------------------|--------------------|--------------------|----3-------------|------------------|

                                                        [Verse]
                                                             C
     With all this money...         ... is you               Palling around
e|----------3----------0----|---------|-----------------|------------------------|
B|-------3------------------|---------|-----------------|----5----5----5----5----|
G|--------------------------|---------|-----------------|----5----5----5----5----|
D|----2-------------2-------|----2----|----0----0--0----|----5----5----5----5----|
A|---------------0----------|----2----|----2----2--2----|----3----3----3----3----|
E|--------------------------|---------|----3----3--3----|------------------------|

      Gm7                        Am7                      C7                        F7
      Don't cost nothin'         Singing a song           don't cost nothing        How do I spend
e|--------------------------|------------------------|-------------------------|-------------------------|
B|----3----3----3--3---x----|------------------------|----5----5----5----5/----|----/10---10---10---10---|
G|----3----3----3--3---x----|----5----5----5----5----|----3----3----3----3/----|----/8----8----8----8----|
D|----3----3----3--3---x----|----5----5----5----5----|----5----5----5----5/----|----/10---10---10---10---|
A|----5----5----5--5---x----|----7----7----7----7----|----3----3----3----3/----|----/8----8----8----8----|
E|----3----3----3--3---x----|----5----5----5----5----|-------------------------|-------------------------|

                                                                                 [Verse 2]
      G7        A7             F7             G7        C                        Gm7
      all this money?          I'd rather just.....with you                      You could buy a house
e|------------------------|------------------------|------------------------|------------------------|
B|----12---12---14---14---|----10---10---10---12---|------------------------|----3----3----3----3----|
G|----10---10---12---12---|----8----8----8----10---|----9----9----9----9----|----3----3----3----3----|
D|----12---12---14---14---|----10---10---10---12---|----10---10---10---10---|----3----3----3----3----|
A|----10---10---12---12---|----8----8----8----10---|----10---10---10---10---|----5----5----5----5----|
E|------------------------|------------------------|----8----8----8----8----|----3----3----3----3----|

                                                                                        
                                                                                     [Verse 3]
      C7                         F7                        Dm7                       Gm7
  and a car, I guess that I can but I've already got a van...     ...put you through college...    
e|--------------------------|-------------------------|----5----5----5--5--5----|-------------------------|
B|----5----5----5--5---5/---|----/10---10---10---10---|----6----6----6--6--6----|----3----3----3----3-----|
G|----3----3----3--3---3/---|----/8----8----8----8----|----5----5----5--5--5----|----3----3----3----3-----|
D|----5----5----5--5---5/---|----/10---10---10---10---|----7----7----7--7--7----|----3----3----3----3-----|
A|----3----3----3--3---3/---|----/8----8----8----8----|----5----5----5--5--5----|----5----5----5----5-----|
E|--------------------------|-------------------------|-------------------------|----3----3----3----3-----|

                                                                                        [Outro]
      C7                        F7                                                      Gm7
 ...time,       I could buy you all the finest courses on line,   What if we took a trip,    Do you think?
e|-------------------------|-----------------------------|-------------------------|------------------------|
B|----5----5----5----5/----|----/10---10---10--10---10---|----10----10---10---10---|----3----3----3----3----|
G|----3----3----3----3/----|----/8----8----8---8----8----|----8-----8----8----8----|----3----3----3----3----|
D|----5----5----5----5/----|----/10---10---10--10---10---|----10----10---10---10---|----3----3----3----3----|
A|----3----3----3----3/----|----/8----8----8---8----8----|----8-----8----8----8----|----5----5----5----5----|
E|-------------------------|-----------------------------|-------------------------|----3----3----3----3----|

      C7                       F7         C                D
  Yeah I do! we can take a vacation    we can go somewhere new!
e|------------------------|----1----1/----/8----8/----|----/10----|
B|----5----5----5----5----|----1----1/----/8----8/----|----/10----|
G|----3----3----3----3----|----2----2/----/9----9/----|----/11----|
D|----5----5----5----5----|----1----1/----/10---10/---|----/12----|
A|----3----3----3----3----|----3----3/----/10---10/---|----/12----|
E|------------------------|----1----1/----/8----8/----|----/10----|

************************************

| x   Dead note
| /   Slide up
| \   Slide down

************************************
Suggest correction
Give kudos to tab author, rate the tab!
1 2 3 4 5
comments
print report bad tab
guest
You may want to rate the tab now too:
select rating
Wanna post a correction for this tab? Suggest correction