Oops, an error
Loading. Please wait.

Everything Stays Tab

version 1
version 1

Whole song

  • ver 1 new
    Most of the guides for playing that song seem to o... Show more

Interactive

79 views 63 this week
no commentswrite comment
1 2 3 4 5
3 more votes to show rating
add to favorites
launch autoscroll
font size
0
reset
how to read this tab
guitar tuner
Autoscroll
slow
fast
+/-
esc
set tempo
stop
Help us to improve Ultimate-Guitar.com Take our survey!
×
Author
Difficulty
novice
About this tab version
Most of the guides for playing that song seem to only be chords for guitar, so here is a version with mostly tabs. Feel free to experiment with capos and tuning. Was this info helpful? Yes No
My take on Everything Stays, hope you like it ^^

[Intro]

e|----------------------|
B|--------0--------0----|
G|------0---0------0----|    x2
D|----0-------0---------|
A|--------------3-------|
E|--3-------------------|

[Verse]
Let's go to the garden, you'll find something waiting
e|--------------------------------------------------|
B|--------0-------0-------------0--------0----------|
G|------0---0-----0-----------0---0------2----------|
D|----0-------0--------------0-------0--------------|
A|--------------3----------------------3------------|
E|--3----------------------3------------------------|

 Right there where you left it    lying upside down.
e|--------------------------------------------------|
B|--------0-------0------------------0-------0------|
G|------0---0-----0----------------0---0-----0------|
D|----0-------0------------------0-------0----------|
A|--------------7--------------------------3--------|
E|--7--------------------------3--------------------|

When you finally find it   you'll see how it's faded
e|--------------------------------------------------|
B|--------0-------0-------------0--------0----------|
G|------0---0-----0-----------0---0------2----------|
D|----0-------0--------------0-------0--------------|
A|--------------3----------------------3------------|
E|--3----------------------3------------------------|

 The underside is lighter    when you turn it around.
e|--------------------------------------------------|
B|--------0-------0------------------0-------0------|
G|------0---0-----0----------------0---0-----0------|
D|----0-------0------------------0-------0----------|
A|--------------7--------------------------3--------|
E|--7--------------------------3--------------------|



[Chorus]

           Am
everything stays
                   Em
right where you've left it
           D
everything stays
B7           C
but it still changes
        Am
ever so slightly
          G
daily and nightly
          D
in little ways, when everything 

stays
e|----------------------|
B|--------0--------0----|
G|------0---0------0----|
D|----0-------0---------|
A|--------------3-------|
E|--3-------------------|
Suggest correction
Give kudos to tab author, rate the tab!
1 2 3 4 5
comments
print report bad tab
guest
You may want to rate the tab now too:
select rating
Wanna post a correction for this tab? Suggest correction