Oops, an error
Loading. Please wait.

Here Comes A Thought Bass Tab

874 views 33 this week
no commentswrite comment
1 2 3 4 5
1 last vote to show rating
add to favorites
launch autoscroll
font size
0
reset
guitar tuner
Autoscroll
slow
fast
+/-
esc
set tempo
stop
Help us to improve Ultimate-Guitar.com Take our survey!
×
Author
This is the bass tab for my youtube cover at https://www.youtube.com/watch?v=4fBSHDQQ8go
A small part of the notes are slightly different than the original.



     Take a moment to think of just
G|-----------------------------------------------------------------|
D|-------------------------------------3---------------------------|
A|---------------------------------------------3-------------------|
E|1-----------------------------------------------------0----------|
 
     Flexibility love and trust
G|---------------------------|
D|---------------------------|
A|---------------------------|
E|---------------------------| 

     Take a moment to think of just
G|-----------------------------------------------------------------|
D|-------------------------------------3---------------------------|
A|---------------------------------------------3-------------------|
E|1-----------------------------------------------------0----------|

   Flexibility love and trust
G|---------------------------|
D|---------------------------|
A|---------------------------|
E|---------------------------|

[VERSE]
 
     Here comes a thought                      that may alarm you
G|----------------------------------------------------------------|
D|----------------------------------------------------------------|
A|3-----------------------------------3---------------------------|
E|----------------------------------------------------------------|

   What someone said                        and how it harmed you
G|--------------------3/5-----------------------------------------|
D|3-----------------------------------2---------------------------|
A|--------------------------3-------------------------------------|
E|----------------------------------------------------------------|
                     sl

   Something you did                that failed to be charming
G|----------------------------------------------------------5-----|
D|--------------------------------------------------------5-------|
A|3------------------3----3-----------------------------3-----3---|
E|----------------------------------------------------------------|

   Things that you've said are            suddenly swarming and
G|--------------------3/5-----------------------------------------|
D|3-----------------------------------2---------------------------|
A|--------------------------3-------------------------------------|
E|----------------------------------------------------------------|


[PRECHORUS]

    and Oh                       you're losing sight
G|----------------------------------------------------------------|
D|----------------------------------------------------------------|
A|-------5-5----5----5---------------------------5-5----5----5----|
E|----------------------------------------------------------------|

         You're losing touch
G|----------------------------------------------------------------|
D|-----------------3/5\2------------------------------------------|
A|----------------------------------3-3-----3-----3---------------|
E|-------------------------3--------------------------------------|
                   sl sl

       all these little things seem to matter so much 
G|----------------------------------------------------------------|
D|---------------------------4-4-----4-----4----------------------|
A|----------------------------------------------------------------|
E|----------------------------------------------------------------|

        that they confuse you
G|--------------------------------------|
D|--------------------------------------|
A|--5-----------------------------------|
E|--------------------------------------|
    
        That I might lose you
G|--------------------------------------|
D|--3-----------------------------------|
A|--------------------------------------|
E|--------------------------------------|


[REFRAIN]

      Take a moment remind yourself to
G|-----------------------------------------------------------------|
D|-------------------------------------3---------------------------|
A|---------------------------------------------3-------------------|
E|1-----------------------------------------------------0----------|

  Take a moment and find yourself
G|---------------------------|
D|---------------------------|
A|---------------------------|
E|---------------------------|
        Take a moment to ask yourself if
G|-----------------------------------------------------------------|
D|-------------------------------------3---------------------------|
A|---------------------------------------------3-------------------|
E|1-----------------------------------------------------0----------|
  
This is how we fall apart
G|---------------------------|
D|---------------------------|
A|---------------------------|
E|---------------------------|


[CHORUS]

   but its Not but its not but its not but its not but its not
G|----------------------------------------------------------------|
D|----------------------------------------------------------------|
A|---3---------------3-3--------------------------------0-3-------|
E|----------------------------------------1-----------------0-1---|
   
   its Okay its okay its okay it's okay its okay
G|----------------------------------------------------------------|
D|----------------------------------------------------------------|
A|---3---------------3-3--------------------------------0-3-------|
E|----------------------------------------1-----------------0-1---|

   you got Nothing got nothing got nothing got nothing to fear
G|----------------------------------------------------------------|
D|----------------------------------------------3-----------------|
A|---3---------------3-3------------------------------------------|
E|----------------------------------------1-----------1-1---------|


  Im here
G|---------------------------|
D|---------------------------|
A|5--------------------------|
E|---------------------------|
 
  Im here
G|---------------------------|
D|-3-------------------------|
A|---------------------------|
E|---------------------------|

  Im here, 
G|---------------------------|
D|---------------------------|
A|3--------------------------|
E|---------------------------|


[VERSE]

   Here comes a thought                        that may alarm me
G|----------------------------------------------------------------|
D|----------------------------------------------------------------|
A|-------------------------------------------3--------------------|
E|----------------------------------------------------------------|

   What someone said                        and how it harmed me
G|----------------------------------------------------------------|
D|3--------------------------------------2------------------------|
A|----------------------------------------------------------------|
E|----------------------------------------------------------------|

    Something I did                   that failed to be charming
G|----------------------------------------------------------------|
D|----------------------------------------------------------------|
A|3----------------------------3----------------------------------|
E|----------------------------------------------------------------|

    Things that I've said      are          suddenly swarming and
G|----------------------------------------------------------------|
D|3------------------------------------2--------------------------|
A|----------------------------------------------------------------|
E|----------------------------------------------------------------|


[PRECHORUS]

        Oh                                  I'm losing sight
G|----------------------------------------------------------------|
D|----------------------------------------------------------------|
A|-------5-5----5----5---------------------------5-5----5----5----|
E|----------------------------------------------------------------|

           I'm losing touch
G|----------------------------------------------------------------|
D|-----------------3/5\2------------------------------------------|
A|----------------------------------3-3-----3-----3---------------|
E|-------------------------3--------------------------------------|

all these little things seem to matter so much 
G|----------------------------------------------------------------|
D|---------------------------4-4-----4-----4----------------------|
A|----------------------------------------------------------------|
E|----------------------------------------------------------------|

that they confuse me
G|--------------------------------------|
D|--------------------------------------|
A|--5-----------------------------------|
E|--------------------------------------|

     That I might lose me
G|--------------------------------------|
D|--3-----------------------------------|
A|--------------------------------------|
E|--------------------------------------|


[REFRAIN]

Take a moment remind your self to
G|-----------------------------------------------------------------|
D|-------------------------------------3---------------------------|
A|---------------------------------------------3-------------------|
E|1-----------------------------------------------------0----------|

Take a moment and find yourself
G|---------------------------|
D|---------------------------|
A|---------------------------|
E|---------------------------|

Take a moment to ask yourself if
G|-----------------------------------------------------------------|
D|-------------------------------------3---------------------------|
A|---------------------------------------------3-------------------|
E|1-----------------------------------------------------0----------|

This is how we fall apart
G|---------------------------|
D|---------------------------|
A|---------------------------|
E|---------------------------|


[CHORUS]
         
   but its Not but its not but its not but its not but its not
G|----------------------------------------------------------------|
D|----------------------------------------------------------------|
A|---3---------------3-3--------------------------------0-3-------|
E|----------------------------------------1-----------------0-1---|

       its Okay its okay its okay its okay its okay
G|----------------------------------------------------------------|
D|----------------------------------------------------------------|
A|---3---------------3-3--------------------------------0-3-------|
E|----------------------------------------1-----------------0-1---|
                                               
 I've got Nothing got nothing got nothing got nothing to fear
G|----------------------------------------------------------------|
D|----------------------------------------------3-----------------|
A|---3---------------3-3------------------------------------------|
E|----------------------------------------1-----------1-1---------|

  Im here
G|---------------------------|
D|---------------------------|
A|5--------------------------|
E|---------------------------| 

  Im here
G|---------------------------|
D|-3-------------------------|
A|---------------------------|
E|---------------------------|

  Im here
G|---------------------------|
D|---------------------------|
A|3--------------------------|
E|---------------------------|
                    
   and it was just a
G|---------------------------|
D|---------------------------|
A|---------------------------|
E|---------------------------| 

  thought, just a thought, just a thought, just a thought, just a thought,
G|----------------------------------------------------------------|
D|----------------------------------------------------------------|
A|---3---------------3-3--------------------------------0-3-------|
E|----------------------------------------1-----------------0-1---|

     its Okay its okay its okay its okay its okay
G|----------------------------------------------------------------|
D|----------------------------------------------------------------|
A|---3---------------3-3--------------------------------0-3-------|
E|----------------------------------------1-----------------0-1---|  
                                     
We can watch, we can watch, we can watch, we can watch them go by
G|----------------------5-----------------------------------------|
D|------------------------5----2--------------3-------------------|
A|---3-----------------------------3------------------------------|
E|--------------------------------------1-----------1-1-----------|

  From here
G|---------------------------|
D|---------------------------|
A|5--------------------------|
E|---------------------------|
 
  From here
G|---------------------------|
D|-3-------------------------|
A|---------------------------|
E|---------------------------|
 
  From here
G|---------------------------|
D|---------------------------|
A|3--------------------------|
E|---------------------------|


[REFRAIN]

    Take a moment to think of just
G|-----------------------------------------------------------------|
D|-------------------------------------3---------------------------|
A|---------------------------------------------3-------------------|
E|1-----------------------------------------------------0----------|

   Flexibility love and trust
G|---------------------------|
D|---------------------------|
A|---------------------------|
E|---------------------------|

   Take a moment to think of just
G|-----------------------------------------------------------------|
D|-------------------------------------3---------------------------|
A|---------------------------------------------3-------------------|
E|1-----------------------------------------------------0----------|

   Flexibility love and trust
G|---------------------------|
D|---------------------------|
A|---------------------------|
E|---------------------------|



-jyoung850
Suggest correction
Give kudos to tab author, rate the tab!
1 2 3 4 5
comments
print report bad tab
guest
You may want to rate the tab now too:
select rating
Wanna post a correction for this tab? Suggest correction