Oops, an error
Loading. Please wait.

Tower Of Mistakes Tab

version 1
version 1

Whole song

Interactive

97 views 18 this week
no commentswrite comment
1 2 3 4 5
x 3
add to favorites
launch autoscroll
font size
0
reset
how to read this tab
guitar tuner
Autoscroll
slow
fast
+/-
esc
set tempo
stop
Help us to improve Ultimate-Guitar.com Take our survey!
×
Author
Difficulty
intermediate
      Maybe you're better off with her,   Maybe she's better for you
[Intro]
e|-------------------|-------------------|-------------------------------------|
B|-------------------|-------------------|-------------------------------------|
G|-------------------|-------------------|-------------------------------------|
D|-------------------|-------------------|-------------------------------------|
A|---3------2------0-|-------------------|---3------2------0-------------------|
E|-------------------|-------------------|-------------------------------------|
     PM     PM     PM                        PM     PM     PM

[Verse]              I forgot how great  it felt to be us
e|-------------|-------0-0---------0-0--|------0-0--------0-0------------------|
B|-------------|-------1-1---------1-1--|------1-1--------1-1------------------|
G|-------------|-----2-2-2-------2-2-2--|----2-2-2------2-2-2------------------|
D|-------0---2-|--3-----------2---------|-0------------------------------------|
A|---3---------|------------------------|------------3-------------------------|
E|-------------|------------------------|--------------------------------------|
     PM  PM  PM

                Guess I got carried away      I had to use you...       But I don't              
e|-----------------------|------------------|-------------------|--------------|
B|-----------------------|------------------|-------------------|--------------|
G|-----------------------|------------------|-5-------5---7-----|-----------7--|
D|---0-0-0-0-0-0-0-1~~~--|------------------|-3-------3---5-----|-----------5--|
A|---2-2-2-2-2-2-0-2~~~--|------------------|-5-------5---7-----|--------7-----|
E|-----------------------|------------------|-------------------|--------------|
     PM             |
                   
      care about that now                      I see a tower...     and it all               
e|----------------------|-------------------|--------------------|-------------|
B|----8-----8---8---8---|--8----8---8---8---|--------------------|-------------|
G|----5-----5---5---5---|--5----5---5---5---|---5-------5---7----|-------7-----|
D|----7-----6-------5---|-------6-----------|---3-------3---5----|-------5-----|
A|----------------------|-------------------|---5-------5---7----|----7--------|
E|----------------------|-------------------|--------------------|-------------|


      comes crashing down                  Is there something I can do
                                           [Bridge]
e|----------------------|-----------------|------------------------------------|
B|----8-----8---8---8---|--8-----5--------|------------------------------------|
G|----5-----5---5---5---|--5-----3--------|--------5/7------------7/9----------|
D|----7-----6-------5---|--------4--------|-----3--------------5---------------|
A|----------------------|-----------------|--5--------------7------------------|
E|----------------------|-----------------|------------------------------------|
                                           8th note pattern on slide

                                     Is there something I can do
e|-------------------------------|---------------------------------------------|
B|-------------------------------|---------------------------------------------|
G|----------9\7------------7\5---|---------5/7------------7/9------------------|
D|-------7--------------5--------|------3--------------5-----------------------|
A|----8--------------7-----------|---5--------------7--------------------------|
E|-------------------------------|---------------------------------------------|


                                         Is there something I can do
e|-------------------------------|---------------------------------------------|
B|-------------------------------|---------------------------------------------|
G|----------9\7------------7\5---|--------5/7------------7/9-------------------|
D|-------7--------------5--------|-----3--------------5------------------------|
A|----8--------------7-----------|--5--------------7---------------------------|
E|-------------------------------|---------------------------------------------|


                              Can I make   it   up   to    you
e|------------------------------|------------------------|---------------------|
B|------------------------------|----8----------8---6----|--5~~~---------------|
G|----------9\7------------7\5--|----5----------5---5----|--4~~~---------------|
D|-------7--------------5-------|----7----------7---7----|---------------------|
A|----8--------------7----------|------------------------|---------------------|
E|------------------------------|------------------------|---------------------|


************************************

| /   Slide up
| \   Slide down
| ~   Vibrato
| PM  Palm mute


************************************
Suggest correction
Give kudos to tab author, rate the tab!
1 2 3 4 5
comments
print report bad tab
guest
You may want to rate the tab now too:
select rating
Wanna post a correction for this tab? Suggest correction