Oops, an error
Loading. Please wait.

Attention Span bass

7,228 views 21 this week
1 commentread comment
1 2 3 4 5
x 3
add to favorites
×
Save as Personal and add changes to this tab that will be seen only by you. Learn more ›
×
You can save this tab as Personal to edit and correct it or add notes. All changes will be seen only by you. Learn more »
launch autoscroll
font size
0
reset
guitar tuner
edit
Autoscroll
slow
fast
+/-
esc
set tempo
stop
Difficulty
Intro:
G|---------------------------------------------------------------------------|
D|---------------------------------------------------------------------------|
A|------------4---------------4----------------------------------------------|
E|--2-2--2-5--------2-2--2-5-------------------------------------------------|

G|-----------------------------------------------------------------------------|
D|--4------------------------4------4------------------------------------------|
A|-----4-5-4-2---2-4-2--------4-4-4--4-4-4-------------------------------------|
E|----------------------2------------------------------------------------------|

G|-----------------------------------------------------------------------------|
D|--4------------------------4------4------------------------------------------|
A|-----4-5-4-2---2-4-2--------4-4-4--44-4-4------------------------------------|
E|----------------------2------------------------------------------------------|

G|-----------------------------------------------------------------------------|
D|--4------------------------4------4------------------------------------------|
A|-----4-5-4-2---2-4-2--------4-4-4--4-4-4-------------------------------------|
E|----------------------2------------------------------------------------------|

G|---------------------------------------------------------------------------|
D|--4------------------------------------------------------------------------|
A|-----4-5-4-2---2-4-2----------4--------------------------------------------|
E|----------------------2-2--2-5---------------------------------------------|

Verse

G|-----------------------------------------------------------------------------|
D|--4------------------------4-------4-----------------------------------------|
A|-----4-5-4-2---2-4-2--------44-4-4--44-4-4-----------------------------------|
E|----------------------2------------------------------------------------------|

G|-----------------------------------------------------------------------------|
D|--4------------------------4------4------------------------------------------|
A|-----4-5-4-2---2-4-2-----4--4-4-4--44-4-4------------------------------------|
E|----------------------2------------------------------------------------------|

G|-----------------------------------------------------------------------------|
D|--4------------------------4------4------------------------------------------|
A|-----4-5-4-2---2-4-2--------4-4-4--44-4-4------------------------------------|
E|----------------------2------------------------------------------------------|

G|---------------------------------------------------------------------------|
D|--4------------------------------------------------------------------------|
A|-----4-5-4-2---2-4-2----------4--------------------------------------------|
E|----------------------2-2--2-5---------------------------------------------|

Chorus:
G|-----------------------------------------------------------------------------|
D|-----------------------------------------------------------------------------|
A|-0---------------------------------------------------------------------------|
E|------0-----2-2-2-5-5-2-2---2-2-2-5-5-2--------------------------------------|

G|-----------------------------------------------------------------------------|
D|-----------------------------------------------------------------------------|
A|-0---------------------------------------------------------------------------|
E|------0-----2-2-2-5-5-2-2---2-2-2-5-5-2--------------------------------------|

G|-----------------------------------------------------------------------------|
D|-----------------------------------------------------------------------------|
A|-0--------------------------------------------0----------5-------------------|
E|------0-----2-2-2-5-5-2-2---2-2-2-5-5-2-----------0--------------------------|

Post-Chorus
G|-----------------------------------------------------------------------------|
D|--4------------------------4-------4-----------------------------------------|
A|-----4-5-4-2---2-4-2--------44-4-4--44-4-4-----------------------------------|
E|----------------------2------------------------------------------------------|

G|-----------------------------------------------------------------------------|
D|--4------------------------4------4------------------------------------------|
A|-----4-5-4-2---2-4-2--------4-4-4--4-4-4-------------------------------------|
E|----------------------2------------------------------------------------------|

G|-----------------------------------------------------------------------------|
D|--4------------------------4------4------------------------------------------|
A|-----4-5-4-2---2-4-2--------4-4-4--4-4-4-------------------------------------|
E|----------------------2------------------------------------------------------|

G|---------------------------------------------------------------------------|
D|--4------------------------------------------------------------------------|
A|-----4-5-4-2---2-4-2----------4--------------------------------------------|
E|----------------------2-2--2-5---------------------------------------------|

Verse 2:

G|-----------------------------------------------------------------------------|
D|--4------------------------4-------4-----------------------------------------|
A|-----4-5-4-2---2-4-2--------44-4-4--44-4-4-----------------------------------|
E|----------------------2------------------------------------------------------|

G|-----------------------------------------------------------------------------|
D|--4------------------------4------4------------------------------------------|
A|-----4-5-4-2---2-4-2--------4-4-4--44-4-4------------------------------------|
E|----------------------2------------------------------------------------------|

G|-----------------------------------------------------------------------------|
D|--4------------------------4------4------------------------------------------|
A|-----4-5-4-2---2-4-2--------4-4-4--4-4-4-------------------------------------|
E|----------------------2------------------------------------------------------|

G|---------------------------------------------------------------------------|
D|--4------------------------------------------------------------------------|
A|-----4-5-4-2---2-4-2----------4--------------------------------------------|
E|----------------------2-2--2-5---------------------------------------------|

Chorus

Post-Chorus 2
G|-----------------------------------------------------------------------------|
D|--4------------------------4------4------------------------------------------|
A|-----4-5-4-2---2-4-2--------4-4-4--4-4-4-------------------------------------|
E|----------------------2------------------------------------------------------|

G|---------------------------------------------------------------------------|
D|--4------------------------------------------------------------------------|
A|-----4-5-4-2---2-4-2----------4--------------------------------------------|
E|----------------------2-2--2-5---------------------------------------------|

G|-----------------------------------------------------------------------------|
D|--4------------------------4------4------------------------------------------|
A|-----4-5-4-2---2-4-2--------4-4-4--4-4-4-------------------------------------|
E|----------------------2------------------------------------------------------|

G|---------------------------------------------------------------------------|
D|--4------------------------------------------------------------------------|
A|-----4-5-4-2---2-4-2----------4--------------------------------------------|
E|----------------------2-2--2-5---------------------------------------------|

Bridge:
G|------------------------------------------------------------------------------|
D|-----7----------9------------6-----------7------------------------------------|
A|-5-5--5---7-7-7--7-7---4-4-4--4---5-5-5--5-5----------------------------------|
E|------------------------------------------------------------------------------|

G|-----------------------------------------------------------------------------|
D|-------7----------6----------------------------------------------------------|
A|-5-5-5--5-5-4-4-4--4-4-------------------------------------------------------|
E|------------------------------2-2-2-2-5-5-2-2---2-2-2-5-5-2------------------|

G|------------------------------------------------------------------------------|
D|-----7----------9------------6-----------7------------------------------------|
A|-5-5--5---7-7-7--7-7---4-4-4--4---5-5-5--5-5----------------------------------|
E|------------------------------------------------------------------------------|

G|-----------------------------------------------------------------------------|
D|-------7----------6----------------------------------------------------------|
A|-5-5-5--5-5-4-4-4--4-4-------------------------------------------------------|
E|-------------------------------2-2-2-5-5-2-2---2-2-2-5-5-2-------------------|

G|-----------------------------------------------------------------------------|
D|-------7----------6----------------------------------------------------------|
A|-5-5-5--5-5-4-4-4--4-4-------------------------------------------------------|
E|-------------------------------2--2-2-5-5-2-2---2--2-5-5-2-------------------|

G|-----------------------------------------------------------------------------|
D|-------7----------6----------------------------------------------------------|
A|-5-5-5--5-5-4-4-4--4-4------------4------------------------------------------|
E|--------------------------2-2--2-5-------------------------------------------|

Chorus

Post-Chorus 3
G|-----------------------------------------------------------------------------|
D|--4------------------------4------4------------------------------------------|
A|-----4-5-4-2---2-4-2--------4-4-4--4-4-4-------------------------------------|
E|----------------------2------------------------------------------------------|

G|-----------------------------------------------------------------------------|
D|--4------------------------4------4------------------------------------------|
A|-----4-5-4-2---2-4-2--------4-4-4--44-4-4------------------------------------|
E|----------------------2------------------------------------------------------|

G|-----------------------------------------------------------------------------|
D|--4------------------------4------4------------------------------------------|
A|-----4-5-4-2---2-4-2--------4-4-4--4-4-4-------------------------------------|
E|----------------------2------------------------------------------------------|

G|-----------------------------------------------------------------------------|
D|--4------------------------4------4------------------------------------------|
A|-----4-5-4-2---2-4-2--------4-4-4--4-4-4-------------------------------------|
E|----------------------2------------------------------------------------------|

G|-----------------------------------------------------------------------------|
D|--4------------------------4------4------------------------------------------|
A|-----4-5-4-2---2-4-2--------4-4-4--4-4-4-------------------------------------|
E|----------------------2------------------------------------------------------|

G|-----------------------------------------------------------------------------|
D|--4------------------------4------4------------------------------------------|
A|-----4-5-4-2---2-4-2--------4-4-4--4-4-4-------------------------------------|
E|----------------------2------------------------------------------------------|


by jsims
Suggest correction
Creating personal tab
Creating personal tab
You can edit any tab online and save it as your Personal.

You can edit, replace or remove any tab part or add personal notes – all changes will be seen only by you.

Personal tabs can be accessed anytime from any device, even offline.
Learn more »
Give kudos to tab author, rate the tab!
1 2 3 4 5
comments
print report bad tab
guest
Wanna post a correction for this tab? Suggest correction